  0
SECTION
  2
HEADER
  9
$ACADVER
  1
AC1015
  9
$ACADMAINTVER
 70
     6
  9
$DWGCODEPAGE
  3
ANSI_1254
  9
$INSBASE
 10
0.0
 20
0.0
 30
0.0
  9
$EXTMIN
 10
0.0
 20
0.0
 30
0.0
  9
$EXTMAX
 10
279.4
 20
215.9
 30
0.0
  9
$LIMMIN
 10
0.0
 20
0.0
  9
$LIMMAX
 10
279.4
 20
215.9
  9
$ORTHOMODE
 70
     0
  9
$REGENMODE
 70
     1
  9
$FILLMODE
 70
     1
  9
$QTEXTMODE
 70
     0
  9
$MIRRTEXT
 70
     1
  9
$LTSCALE
 40
1.0
  9
$ATTMODE
 70
     1
  9
$TEXTSIZE
 40
3.5
  9
$TRACEWID
 40
1.0
  9
$TEXTSTYLE
  7
Standard
  9
$CLAYER
  8
0
  9
$CELTYPE
  6
ByLayer
  9
$CECOLOR
 62
   256
  9
$CELTSCALE
 40
1.0
  9
$DISPSILH
 70
     0
  9
$DIMSCALE
 40
1.0
  9
$DIMASZ
 40
3.5
  9
$DIMEXO
 40
1.0
  9
$DIMDLI
 40
3.75
  9
$DIMRND
 40
0.0
  9
$DIMDLE
 40
0.0
  9
$DIMEXE
 40
1.0
  9
$DIMTP
 40
0.0
  9
$DIMTM
 40
0.0
  9
$DIMTXT
 40
3.5
  9
$DIMCEN
 40
2.5
  9
$DIMTSZ
 40
0.0
  9
$DIMTOL
 70
     0
  9
$DIMLIM
 70
     0
  9
$DIMTIH
 70
     1
  9
$DIMTOH
 70
     1
  9
$DIMSE1
 70
     0
  9
$DIMSE2
 70
     0
  9
$DIMTAD
 70
     1
  9
$DIMZIN
 70
     0
  9
$DIMBLK
  1

  9
$DIMASO
 70
     1
  9
$DIMSHO
 70
     1
  9
$DIMPOST
  1

  9
$DIMAPOST
  1

  9
$DIMALT
 70
     0
  9
$DIMALTD
 70
     3
  9
$DIMALTF
 40
0.0393700787
  9
$DIMLFAC
 40
1.0
  9
$DIMTOFL
 70
     1
  9
$DIMTVP
 40
0.0
  9
$DIMTIX
 70
     0
  9
$DIMSOXD
 70
     0
  9
$DIMSAH
 70
     0
  9
$DIMBLK1
  1

  9
$DIMBLK2
  1

  9
$DIMSTYLE
  2
ISO-25
  9
$DIMCLRD
 70
     0
  9
$DIMCLRE
 70
     0
  9
$DIMCLRT
 70
     0
  9
$DIMTFAC
 40
1.0
  9
$DIMGAP
 40
1.524
  9
$DIMJUST
 70
     0
  9
$DIMSD1
 70
     0
  9
$DIMSD2
 70
     0
  9
$DIMTOLJ
 70
     0
  9
$DIMTZIN
 70
     0
  9
$DIMALTZ
 70
     0
  9
$DIMALTTZ
 70
     0
  9
$DIMUPT
 70
     0
  9
$DIMDEC
 70
     2
  9
$DIMTDEC
 70
     2
  9
$DIMALTU
 70
     2
  9
$DIMALTTD
 70
     3
  9
$DIMTXSTY
  7
Standard
  9
$DIMAUNIT
 70
     0
  9
$DIMADEC
 70
     2
  9
$DIMALTRND
 40
0.0
  9
$DIMAZIN
 70
     0
  9
$DIMDSEP
 70
    44
  9
$DIMATFIT
 70
     3
  9
$DIMFRAC
 70
     0
  9
$DIMLDRBLK
  1

  9
$DIMLUNIT
 70
     2
  9
$DIMLWD
 70
    -2
  9
$DIMLWE
 70
    -2
  9
$DIMTMOVE
 70
     0
  9
$LUNITS
 70
     2
  9
$LUPREC
 70
     2
  9
$SKETCHINC
 40
1.0
  9
$FILLETRAD
 40
10.0
  9
$AUNITS
 70
     0
  9
$AUPREC
 70
     2
  9
$MENU
  1
.
  9
$ELEVATION
 40
0.0
  9
$PELEVATION
 40
0.0
  9
$THICKNESS
 40
0.0
  9
$LIMCHECK
 70
     0
  9
$CHAMFERA
 40
0.0
  9
$CHAMFERB
 40
0.0
  9
$CHAMFERC
 40
0.0
  9
$CHAMFERD
 40
0.0
  9
$SKPOLY
 70
     0
  9
$TDCREATE
 40
2459741.588760938
  9
$TDUCREATE
 40
2459741.463760938
  9
$TDUPDATE
 40
2459741.588763623
  9
$TDUUPDATE
 40
2459741.463763623
  9
$TDINDWG
 40
0.0000000116
  9
$TDUSRTIMER
 40
0.0000000116
  9
$USRTIMER
 70
     1
  9
$ANGBASE
 50
0.0
  9
$ANGDIR
 70
     0
  9
$PDMODE
 70
     0
  9
$PDSIZE
 40
-1.0
  9
$PLINEWID
 40
0.0
  9
$SPLFRAME
 70
     0
  9
$SPLINETYPE
 70
     6
  9
$SPLINESEGS
 70
     8
  9
$HANDSEED
  5
20C
  9
$SURFTAB1
 70
     6
  9
$SURFTAB2
 70
     6
  9
$SURFTYPE
 70
     6
  9
$SURFU
 70
     6
  9
$SURFV
 70
     6
  9
$UCSBASE
  2

  9
$UCSNAME
  2

  9
$UCSORG
 10
0.0
 20
0.0
 30
0.0
  9
$UCSXDIR
 10
1.0
 20
0.0
 30
0.0
  9
$UCSYDIR
 10
0.0
 20
1.0
 30
0.0
  9
$UCSORTHOREF
  2

  9
$UCSORTHOVIEW
 70
     0
  9
$UCSORGTOP
 10
0.0
 20
0.0
 30
0.0
  9
$UCSORGBOTTOM
 10
0.0
 20
0.0
 30
0.0
  9
$UCSORGLEFT
 10
0.0
 20
0.0
 30
0.0
  9
$UCSORGRIGHT
 10
0.0
 20
0.0
 30
0.0
  9
$UCSORGFRONT
 10
0.0
 20
0.0
 30
0.0
  9
$UCSORGBACK
 10
0.0
 20
0.0
 30
0.0
  9
$PUCSBASE
  2

  9
$PUCSNAME
  2

  9
$PUCSORG
 10
0.0
 20
0.0
 30
0.0
  9
$PUCSXDIR
 10
1.0
 20
0.0
 30
0.0
  9
$PUCSYDIR
 10
0.0
 20
1.0
 30
0.0
  9
$PUCSORTHOREF
  2

  9
$PUCSORTHOVIEW
 70
     0
  9
$PUCSORGTOP
 10
0.0
 20
0.0
 30
0.0
  9
$PUCSORGBOTTOM
 10
0.0
 20
0.0
 30
0.0
  9
$PUCSORGLEFT
 10
0.0
 20
0.0
 30
0.0
  9
$PUCSORGRIGHT
 10
0.0
 20
0.0
 30
0.0
  9
$PUCSORGFRONT
 10
0.0
 20
0.0
 30
0.0
  9
$PUCSORGBACK
 10
0.0
 20
0.0
 30
0.0
  9
$USERI1
 70
     0
  9
$USERI2
 70
     0
  9
$USERI3
 70
     0
  9
$USERI4
 70
     0
  9
$USERI5
 70
     0
  9
$USERR1
 40
0.0
  9
$USERR2
 40
0.0
  9
$USERR3
 40
0.0
  9
$USERR4
 40
0.0
  9
$USERR5
 40
0.0
  9
$WORLDVIEW
 70
     1
  9
$SHADEDGE
 70
     3
  9
$SHADEDIF
 70
    70
  9
$TILEMODE
 70
     1
  9
$MAXACTVP
 70
    64
  9
$PINSBASE
 10
0.0
 20
0.0
 30
0.0
  9
$PLIMCHECK
 70
     0
  9
$PEXTMIN
 10
1.0000000000E+20
 20
1.0000000000E+20
 30
1.0000000000E+20
  9
$PEXTMAX
 10
-1.0000000000E+20
 20
-1.0000000000E+20
 30
-1.0000000000E+20
  9
$PLIMMIN
 10
0.0
 20
0.0
  9
$PLIMMAX
 10
420.0
 20
297.0
  9
$UNITMODE
 70
     0
  9
$VISRETAIN
 70
     1
  9
$PLINEGEN
 70
     0
  9
$PSLTSCALE
 70
     1
  9
$TREEDEPTH
 70
  3020
  9
$CMLSTYLE
  2
Standard
  9
$CMLJUST
 70
     0
  9
$CMLSCALE
 40
20.0
  9
$PROXYGRAPHICS
 70
     1
  9
$MEASUREMENT
 70
     1
  9
$CELWEIGHT
370
    -1
  9
$ENDCAPS
280
     0
  9
$JOINSTYLE
280
     0
  9
$LWDISPLAY
290
     1
  9
$INSUNITS
 70
     4
  9
$HYPERLINKBASE
  1

  9
$STYLESHEET
  1

  9
$XEDIT
290
     1
  9
$CEPSNTYPE
380
     0
  9
$PSTYLEMODE
290
     1
  9
$FINGERPRINTGUID
  2
{6cfc39d7-3f8c-48be-92dd-bc26c550682b}
  9
$VERSIONGUID
  2
{FAEB1C32-E019-11D5-929B-00C0DF256EC4}
  9
$EXTNAMES
290
     1
  9
$PSVPSCALE
 40
0.0
  9
$OLESTARTUP
290
     0
  0
ENDSEC
  0
SECTION
  2
CLASSES
  0
CLASS
  1
ACDBDICTIONARYWDFLT
  2
AcDbDictionaryWithDefault
  3
ObjectDBX Classes
 90
        0
280
     0
281
     0
  0
CLASS
  1
VISUALSTYLE
  2
AcDbVisualStyle
  3
ObjectDBX Classes
 90
     4095
280
     0
281
     0
  0
CLASS
  1
MATERIAL
  2
AcDbMaterial
  3
ObjectDBX Classes
 90
     1153
280
     0
281
     0
  0
CLASS
  1
SCALE
  2
AcDbScale
  3
ObjectDBX Classes
 90
     1153
280
     0
281
     0
  0
CLASS
  1
TABLESTYLE
  2
AcDbTableStyle
  3
ObjectDBX Classes
 90
     4095
280
     0
281
     0
  0
CLASS
  1
MLEADERSTYLE
  2
AcDbMLeaderStyle
  3
ACDB_MLEADERSTYLE_CLASS
 90
     4095
280
     0
281
     0
  0
CLASS
  1
SUN
  2
AcDbSun
  3
SCENEOE
 90
     1153
280
     0
281
     0
  0
CLASS
  1
ACDBPLACEHOLDER
  2
AcDbPlaceHolder
  3
ObjectDBX Classes
 90
        0
280
     0
281
     0
  0
CLASS
  1
LAYOUT
  2
AcDbLayout
  3
ObjectDBX Classes
 90
        0
280
     0
281
     0
  0
ENDSEC
  0
SECTION
  2
TABLES
  0
TABLE
  2
VPORT
  5
8
330
0
100
AcDbSymbolTable
 70
     1
  0
VPORT
  5
29
330
8
100
AcDbSymbolTableRecord
100
AcDbViewportTableRecord
  2
*Active
 70
     0
 10
0.0
 20
0.0
 11
1.0
 21
1.0
 12
139.7
 22
107.95
 13
0.0
 23
0.0
 14
10.0
 24
10.0
 15
10.0
 25
10.0
 16
0.0
 26
0.0
 36
1.0
 17
0.0
 27
0.0
 37
0.0
 40
215.9
 41
1.2941176471
 42
50.0
 43
0.0
 44
0.0
 50
0.0
 51
0.0
 71
     0
 72
  2000
 73
     1
 74
     3
 75
     0
 76
     0
 77
     0
 78
     0
281
     0
 65
     1
110
0.0
120
0.0
130
0.0
111
1.0
121
0.0
131
0.0
112
0.0
122
1.0
132
0.0
 79
     0
146
0.0
  0
ENDTAB
  0
TABLE
  2
LTYPE
  5
5
330
0
100
AcDbSymbolTable
 70
     6
  0
LTYPE
  5
14
330
5
100
AcDbSymbolTableRecord
100
AcDbLinetypeTableRecord
  2
ByBlock
 70
     0
  3

 72
    65
 73
     0
 40
0.0
  0
LTYPE
  5
15
330
5
100
AcDbSymbolTableRecord
100
AcDbLinetypeTableRecord
  2
ByLayer
 70
     0
  3

 72
    65
 73
     0
 40
0.0
  0
LTYPE
  5
16
330
5
100
AcDbSymbolTableRecord
100
AcDbLinetypeTableRecord
  2
Continuous
 70
     0
  3
Solid line
 72
    65
 73
     0
 40
0.0
  0
LTYPE
  5
6E
330
5
100
AcDbSymbolTableRecord
100
AcDbLinetypeTableRecord
  2
HIDDEN
 70
     0
  3
Hidden __ __ __ __ __ __ __ __ __ __ __ __ __ __
 72
    65
 73
     2
 40
1.905
 49
1.27
 74
     0
 49
-0.635
 74
     0
  0
LTYPE
  5
6F
330
5
100
AcDbSymbolTableRecord
100
AcDbLinetypeTableRecord
  2
PHANTOM
 70
     0
  3
Phantom ______  __  __  ______  __  __  ______
 72
    65
 73
     6
 40
12.7
 49
6.35
 74
     0
 49
-1.27
 74
     0
 49
1.27
 74
     0
 49
-1.27
 74
     0
 49
1.27
 74
     0
 49
-1.27
 74
     0
  0
LTYPE
  5
70
330
5
100
AcDbSymbolTableRecord
100
AcDbLinetypeTableRecord
  2
CENTER
 70
     0
  3
Center ____ _ ____ _ ____ _ ____ _ ____ _ ____
 72
    65
 73
     4
 40
10.16
 49
6.35
 74
     0
 49
-1.27
 74
     0
 49
1.27
 74
     0
 49
-1.27
 74
     0
  0
LTYPE
  5
71
330
5
100
AcDbSymbolTableRecord
100
AcDbLinetypeTableRecord
  2
CENTERX2
 70
     0
  3
Center (2x) ________  __  ________  __  _____
 72
    65
 73
     4
 40
20.32
 49
12.7
 74
     0
 49
-2.54
 74
     0
 49
2.54
 74
     0
 49
-2.54
 74
     0
  0
LTYPE
  5
72
330
5
100
AcDbSymbolTableRecord
100
AcDbLinetypeTableRecord
  2
DOT2
 70
     0
  3
Dot (.5x) ........................................
 72
    65
 73
     2
 40
0.635
 49
0.0
 74
     0
 49
-0.635
 74
     0
  0
ENDTAB
  0
TABLE
  2
LAYER
  5
2
330
0
100
AcDbSymbolTable
 70
    17
  0
LAYER
  5
10
330
2
100
AcDbSymbolTableRecord
100
AcDbLayerTableRecord
  2
0
 70
     0
 62
     7
  6
Continuous
370
    -3
390
F
  0
LAYER
  5
73
330
2
100
AcDbSymbolTableRecord
100
AcDbLayerTableRecord
  2
FORMAT
 70
     0
 62
     7
  6
Continuous
370
    -3
390
F
  0
LAYER
  5
74
330
2
100
AcDbSymbolTableRecord
100
AcDbLayerTableRecord
  2
YARDIMCI_GEOMETRI
 70
     0
 62
    -6
  6
Continuous
290
     0
370
    -3
390
F
  0
LAYER
  5
75
330
2
100
AcDbSymbolTableRecord
100
AcDbLayerTableRecord
  2
SAYFA_CERCEVESI
 70
     0
 62
     7
  6
Continuous
370
    25
390
F
  0
LAYER
  5
76
330
2
100
AcDbSymbolTableRecord
100
AcDbLayerTableRecord
  2
ANTET
 70
     0
 62
     7
  6
Continuous
370
    -3
390
F
  0
LAYER
  5
77
330
2
100
AcDbSymbolTableRecord
100
AcDbLayerTableRecord
  2
OLCU
 70
     0
 62
   150
  6
Continuous
370
    -3
390
F
  0
LAYER
  5
78
330
2
100
AcDbSymbolTableRecord
100
AcDbLayerTableRecord
  2
METIN
 70
     0
 62
    96
  6
Continuous
370
    -3
390
F
  0
LAYER
  5
79
330
2
100
AcDbSymbolTableRecord
100
AcDbLayerTableRecord
  2
BALON
 70
     0
 62
     5
  6
Continuous
370
    -3
390
F
  0
LAYER
  5
7A
330
2
100
AcDbSymbolTableRecord
100
AcDbLayerTableRecord
  2
VURGU
 70
     0
 62
     7
  6
Continuous
370
    -3
390
F
  0
LAYER
  5
7B
330
2
100
AcDbSymbolTableRecord
100
AcDbLayerTableRecord
  2
SILIK
 70
     0
 62
     7
  6
Continuous
370
    -3
390
F
  0
LAYER
  5
7C
330
2
100
AcDbSymbolTableRecord
100
AcDbLayerTableRecord
  2
MODEL
 70
     0
 62
     7
  6
Continuous
370
    -3
390
F
  0
LAYER
  5
7D
330
2
100
AcDbSymbolTableRecord
100
AcDbLayerTableRecord
  2
DETAYLANDıRMA
 70
     0
 62
   190
  6
Continuous
370
    -3
390
F
  0
LAYER
  5
7E
330
2
100
AcDbSymbolTableRecord
100
AcDbLayerTableRecord
  2
TOLERANS
 70
     0
 62
   230
  6
Continuous
370
    -3
390
F
  0
LAYER
  5
7F
330
2
100
AcDbSymbolTableRecord
100
AcDbLayerTableRecord
  2
MERKEZ_CIZGILERI
 70
     0
 62
    30
  6
Continuous
370
    -3
390
F
  0
LAYER
  5
80
330
2
100
AcDbSymbolTableRecord
100
AcDbLayerTableRecord
  2
KESIT-DETAY_CIZGILERI
 70
     0
 62
     7
  6
Continuous
370
    -3
390
F
  0
LAYER
  5
81
330
2
100
AcDbSymbolTableRecord
100
AcDbLayerTableRecord
  2
\U+041E\U+0421\U+0415\U+0412\U+042B\U+0415
 70
     0
 62
     7
  6
Continuous
370
    -3
390
F
  0
LAYER
  5
82
330
2
100
AcDbSymbolTableRecord
100
AcDbLayerTableRecord
  2
\U+0412\U+041E\U+0414\U+042F\U+041D\U+042B\U+0415_\U+0417\U+041D\U+0410\U+041A\U+0418
 70
     0
 62
    11
  6
Continuous
370
    -3
390
F
  0
ENDTAB
  0
TABLE
  2
STYLE
  5
3
330
0
100
AcDbSymbolTable
 70
     1
  0
STYLE
  5
11
330
3
100
AcDbSymbolTableRecord
100
AcDbTextStyleTableRecord
  2
Standard
 70
     0
 40
0.0
 41
1.0
 50
0.0
 71
     0
 42
3.5
  3
txt
  4

  0
ENDTAB
  0
TABLE
  2
VIEW
  5
6
330
0
100
AcDbSymbolTable
 70
     0
  0
ENDTAB
  0
TABLE
  2
UCS
  5
7
330
0
100
AcDbSymbolTable
 70
     0
  0
ENDTAB
  0
TABLE
  2
APPID
  5
9
330
0
100
AcDbSymbolTable
 70
     1
  0
APPID
  5
12
330
9
100
AcDbSymbolTableRecord
100
AcDbRegAppTableRecord
  2
ACAD
 70
     0
  0
ENDTAB
  0
TABLE
  2
DIMSTYLE
  5
A
330
0
100
AcDbSymbolTable
 70
     1
100
AcDbDimStyleTable
  0
DIMSTYLE
105
27
330
A
100
AcDbSymbolTableRecord
100
AcDbDimStyleTableRecord
  2
ISO-25
 70
     0
 41
2.5
 42
0.625
 43
3.75
 44
1.25
 73
     0
 74
     0
 77
     1
 78
     8
140
2.5
141
2.5
143
0.0393700787
147
0.625
171
     3
172
     1
178
     0
271
     2
272
     2
274
     3
278
    44
283
     0
284
     8
340
11
  0
ENDTAB
  0
TABLE
  2
BLOCK_RECORD
  5
1
330
0
100
AcDbSymbolTable
 70
    17
  0
BLOCK_RECORD
  5
1F
330
1
100
AcDbSymbolTableRecord
100
AcDbBlockTableRecord
  2
*Model_Space
340
22
  0
BLOCK_RECORD
  5
1B
330
1
100
AcDbSymbolTableRecord
100
AcDbBlockTableRecord
  2
*Paper_Space
340
1E
  0
BLOCK_RECORD
  5
23
330
1
100
AcDbSymbolTableRecord
100
AcDbBlockTableRecord
  2
*Paper_Space0
340
26
  0
BLOCK_RECORD
  5
A7
330
1
100
AcDbSymbolTableRecord
100
AcDbBlockTableRecord
  2
SW_CENTERMARKSYMBOL_0
340
0
102
{BLKREFS
331
B2
102
}
  0
BLOCK_RECORD
  5
B3
330
1
100
AcDbSymbolTableRecord
100
AcDbBlockTableRecord
  2
SW_CENTERMARKSYMBOL_1
340
0
102
{BLKREFS
331
BE
102
}
  0
BLOCK_RECORD
  5
BF
330
1
100
AcDbSymbolTableRecord
100
AcDbBlockTableRecord
  2
SW_CENTERMARKSYMBOL_2
340
0
102
{BLKREFS
331
CA
102
}
  0
BLOCK_RECORD
  5
CB
330
1
100
AcDbSymbolTableRecord
100
AcDbBlockTableRecord
  2
SW_CENTERMARKSYMBOL_3
340
0
102
{BLKREFS
331
D6
102
}
  0
BLOCK_RECORD
  5
D7
330
1
100
AcDbSymbolTableRecord
100
AcDbBlockTableRecord
  2
SW_CENTERMARKSYMBOL_4
340
0
102
{BLKREFS
331
E2
102
}
  0
BLOCK_RECORD
  5
E3
330
1
100
AcDbSymbolTableRecord
100
AcDbBlockTableRecord
  2
SW_CENTERMARKSYMBOL_5
340
0
102
{BLKREFS
331
EE
102
}
  0
BLOCK_RECORD
  5
EF
330
1
100
AcDbSymbolTableRecord
100
AcDbBlockTableRecord
  2
SW_CENTERMARKSYMBOL_6
340
0
102
{BLKREFS
331
FA
102
}
  0
BLOCK_RECORD
  5
FB
330
1
100
AcDbSymbolTableRecord
100
AcDbBlockTableRecord
  2
SW_CENTERMARKSYMBOL_7
340
0
102
{BLKREFS
331
106
102
}
  0
BLOCK_RECORD
  5
107
330
1
100
AcDbSymbolTableRecord
100
AcDbBlockTableRecord
  2
SW_CENTERMARKSYMBOL_8
340
0
102
{BLKREFS
331
112
102
}
  0
BLOCK_RECORD
  5
113
330
1
100
AcDbSymbolTableRecord
100
AcDbBlockTableRecord
  2
SW_CENTERMARKSYMBOL_9
340
0
102
{BLKREFS
331
11E
102
}
  0
BLOCK_RECORD
  5
11F
330
1
100
AcDbSymbolTableRecord
100
AcDbBlockTableRecord
  2
SW_CENTERMARKSYMBOL_10
340
0
102
{BLKREFS
331
12A
102
}
  0
BLOCK_RECORD
  5
12B
330
1
100
AcDbSymbolTableRecord
100
AcDbBlockTableRecord
  2
SW_CENTERMARKSYMBOL_11
340
0
102
{BLKREFS
331
136
102
}
  0
BLOCK_RECORD
  5
137
330
1
100
AcDbSymbolTableRecord
100
AcDbBlockTableRecord
  2
SW_CENTERMARKSYMBOL_12
340
0
102
{BLKREFS
331
142
102
}
  0
BLOCK_RECORD
  5
143
330
1
100
AcDbSymbolTableRecord
100
AcDbBlockTableRecord
  2
SW_CENTERMARKSYMBOL_13
340
0
102
{BLKREFS
331
14E
102
}
  0
BLOCK_RECORD
  5
14F
330
1
100
AcDbSymbolTableRecord
100
AcDbBlockTableRecord
  2
SW_CENTERMARKSYMBOL_14
340
0
102
{BLKREFS
331
15A
102
}
  0
BLOCK_RECORD
  5
15B
330
1
100
AcDbSymbolTableRecord
100
AcDbBlockTableRecord
  2
SW_CENTERMARKSYMBOL_15
340
0
102
{BLKREFS
331
166
102
}
  0
ENDTAB
  0
ENDSEC
  0
SECTION
  2
BLOCKS
  0
BLOCK
  5
20
330
1F
100
AcDbEntity
  8
0
100
AcDbBlockBegin
  2
*Model_Space
 70
     0
 10
0.0
 20
0.0
 30
0.0
  3
*Model_Space
  1

  0
ENDBLK
  5
21
330
1F
100
AcDbEntity
  8
0
100
AcDbBlockEnd
  0
BLOCK
  5
1C
330
1B
100
AcDbEntity
 67
     1
  8
0
100
AcDbBlockBegin
  2
*Paper_Space
 70
     0
 10
0.0
 20
0.0
 30
0.0
  3
*Paper_Space
  1

  0
ENDBLK
  5
1D
330
1B
100
AcDbEntity
 67
     1
  8
0
100
AcDbBlockEnd
  0
BLOCK
  5
24
330
23
100
AcDbEntity
  8
0
100
AcDbBlockBegin
  2
*Paper_Space0
 70
     0
 10
0.0
 20
0.0
 30
0.0
  3
*Paper_Space0
  1

  0
ENDBLK
  5
25
330
23
100
AcDbEntity
  8
0
100
AcDbBlockEnd
  0
BLOCK
  5
A8
330
A7
100
AcDbEntity
  8
0
100
AcDbBlockBegin
  2
SW_CENTERMARKSYMBOL_0
 70
     0
 10
0.0
 20
0.0
 30
0.0
  3
SW_CENTERMARKSYMBOL_0
  1

  0
LINE
  5
AA
330
A7
100
AcDbEntity
  8
FORMAT
 62
     0
100
AcDbLine
 10
0.0
 20
0.0
 30
0.0
 11
0.0
 21
2.5
 31
0.0
  0
LINE
  5
AB
330
A7
100
AcDbEntity
  8
FORMAT
 62
     0
100
AcDbLine
 10
0.0
 20
0.0
 30
0.0
 11
-2.5
 21
0.0
 31
0.0
  0
LINE
  5
AC
330
A7
100
AcDbEntity
  8
FORMAT
 62
     0
100
AcDbLine
 10
0.0
 20
0.0
 30
0.0
 11
0.0
 21
-2.5
 31
0.0
  0
LINE
  5
AD
330
A7
100
AcDbEntity
  8
FORMAT
 62
     0
100
AcDbLine
 10
0.0
 20
0.0
 30
0.0
 11
2.5
 21
0.0
 31
0.0
  0
LINE
  5
AE
330
A7
100
AcDbEntity
  8
FORMAT
 62
     0
100
AcDbLine
 10
0.0
 20
5.0
 30
0.0
 11
0.0
 21
16.75
 31
0.0
  0
LINE
  5
AF
330
A7
100
AcDbEntity
  8
FORMAT
 62
     0
100
AcDbLine
 10
-5.0
 20
0.0
 30
0.0
 11
-16.75
 21
0.0
 31
0.0
  0
LINE
  5
B0
330
A7
100
AcDbEntity
  8
FORMAT
 62
     0
100
AcDbLine
 10
0.0
 20
-5.0
 30
0.0
 11
0.0
 21
-16.75
 31
0.0
  0
LINE
  5
B1
330
A7
100
AcDbEntity
  8
FORMAT
 62
     0
100
AcDbLine
 10
5.0
 20
0.0
 30
0.0
 11
16.75
 21
0.0
 31
0.0
  0
ENDBLK
  5
A9
330
A7
100
AcDbEntity
  8
0
100
AcDbBlockEnd
  0
BLOCK
  5
B4
330
B3
100
AcDbEntity
  8
0
100
AcDbBlockBegin
  2
SW_CENTERMARKSYMBOL_1
 70
     0
 10
0.0
 20
0.0
 30
0.0
  3
SW_CENTERMARKSYMBOL_1
  1

  0
LINE
  5
B6
330
B3
100
AcDbEntity
  8
FORMAT
 62
     0
100
AcDbLine
 10
0.0
 20
0.0
 30
0.0
 11
0.0
 21
2.5
 31
0.0
  0
LINE
  5
B7
330
B3
100
AcDbEntity
  8
FORMAT
 62
     0
100
AcDbLine
 10
0.0
 20
0.0
 30
0.0
 11
-2.5
 21
0.0
 31
0.0
  0
LINE
  5
B8
330
B3
100
AcDbEntity
  8
FORMAT
 62
     0
100
AcDbLine
 10
0.0
 20
0.0
 30
0.0
 11
0.0
 21
-2.5
 31
0.0
  0
LINE
  5
B9
330
B3
100
AcDbEntity
  8
FORMAT
 62
     0
100
AcDbLine
 10
0.0
 20
0.0
 30
0.0
 11
2.5
 21
0.0
 31
0.0
  0
LINE
  5
BA
330
B3
100
AcDbEntity
  8
FORMAT
 62
     0
100
AcDbLine
 10
0.0
 20
5.0
 30
0.0
 11
0.0
 21
16.75
 31
0.0
  0
LINE
  5
BB
330
B3
100
AcDbEntity
  8
FORMAT
 62
     0
100
AcDbLine
 10
-5.0
 20
0.0
 30
0.0
 11
-16.75
 21
0.0
 31
0.0
  0
LINE
  5
BC
330
B3
100
AcDbEntity
  8
FORMAT
 62
     0
100
AcDbLine
 10
0.0
 20
-5.0
 30
0.0
 11
0.0
 21
-16.75
 31
0.0
  0
LINE
  5
BD
330
B3
100
AcDbEntity
  8
FORMAT
 62
     0
100
AcDbLine
 10
5.0
 20
0.0
 30
0.0
 11
16.75
 21
0.0
 31
0.0
  0
ENDBLK
  5
B5
330
B3
100
AcDbEntity
  8
0
100
AcDbBlockEnd
  0
BLOCK
  5
C0
330
BF
100
AcDbEntity
  8
0
100
AcDbBlockBegin
  2
SW_CENTERMARKSYMBOL_2
 70
     0
 10
0.0
 20
0.0
 30
0.0
  3
SW_CENTERMARKSYMBOL_2
  1

  0
LINE
  5
C2
330
BF
100
AcDbEntity
  8
FORMAT
 62
     0
100
AcDbLine
 10
0.0
 20
0.0
 30
0.0
 11
0.0
 21
2.5
 31
0.0
  0
LINE
  5
C3
330
BF
100
AcDbEntity
  8
FORMAT
 62
     0
100
AcDbLine
 10
0.0
 20
0.0
 30
0.0
 11
-2.5
 21
0.0
 31
0.0
  0
LINE
  5
C4
330
BF
100
AcDbEntity
  8
FORMAT
 62
     0
100
AcDbLine
 10
0.0
 20
0.0
 30
0.0
 11
0.0
 21
-2.5
 31
0.0
  0
LINE
  5
C5
330
BF
100
AcDbEntity
  8
FORMAT
 62
     0
100
AcDbLine
 10
0.0
 20
0.0
 30
0.0
 11
2.5
 21
0.0
 31
0.0
  0
LINE
  5
C6
330
BF
100
AcDbEntity
  8
FORMAT
 62
     0
100
AcDbLine
 10
0.0
 20
5.0
 30
0.0
 11
0.0
 21
16.75
 31
0.0
  0
LINE
  5
C7
330
BF
100
AcDbEntity
  8
FORMAT
 62
     0
100
AcDbLine
 10
-5.0
 20
0.0
 30
0.0
 11
-16.75
 21
0.0
 31
0.0
  0
LINE
  5
C8
330
BF
100
AcDbEntity
  8
FORMAT
 62
     0
100
AcDbLine
 10
0.0
 20
-5.0
 30
0.0
 11
0.0
 21
-16.75
 31
0.0
  0
LINE
  5
C9
330
BF
100
AcDbEntity
  8
FORMAT
 62
     0
100
AcDbLine
 10
5.0
 20
0.0
 30
0.0
 11
16.75
 21
0.0
 31
0.0
  0
ENDBLK
  5
C1
330
BF
100
AcDbEntity
  8
0
100
AcDbBlockEnd
  0
BLOCK
  5
CC
330
CB
100
AcDbEntity
  8
0
100
AcDbBlockBegin
  2
SW_CENTERMARKSYMBOL_3
 70
     0
 10
0.0
 20
0.0
 30
0.0
  3
SW_CENTERMARKSYMBOL_3
  1

  0
LINE
  5
CE
330
CB
100
AcDbEntity
  8
FORMAT
 62
     0
100
AcDbLine
 10
0.0
 20
0.0
 30
0.0
 11
0.0
 21
2.5
 31
0.0
  0
LINE
  5
CF
330
CB
100
AcDbEntity
  8
FORMAT
 62
     0
100
AcDbLine
 10
0.0
 20
0.0
 30
0.0
 11
-2.5
 21
0.0
 31
0.0
  0
LINE
  5
D0
330
CB
100
AcDbEntity
  8
FORMAT
 62
     0
100
AcDbLine
 10
0.0
 20
0.0
 30
0.0
 11
0.0
 21
-2.5
 31
0.0
  0
LINE
  5
D1
330
CB
100
AcDbEntity
  8
FORMAT
 62
     0
100
AcDbLine
 10
0.0
 20
0.0
 30
0.0
 11
2.5
 21
0.0
 31
0.0
  0
LINE
  5
D2
330
CB
100
AcDbEntity
  8
FORMAT
 62
     0
100
AcDbLine
 10
0.0
 20
5.0
 30
0.0
 11
0.0
 21
16.75
 31
0.0
  0
LINE
  5
D3
330
CB
100
AcDbEntity
  8
FORMAT
 62
     0
100
AcDbLine
 10
-5.0
 20
0.0
 30
0.0
 11
-16.75
 21
0.0
 31
0.0
  0
LINE
  5
D4
330
CB
100
AcDbEntity
  8
FORMAT
 62
     0
100
AcDbLine
 10
0.0
 20
-5.0
 30
0.0
 11
0.0
 21
-16.75
 31
0.0
  0
LINE
  5
D5
330
CB
100
AcDbEntity
  8
FORMAT
 62
     0
100
AcDbLine
 10
5.0
 20
0.0
 30
0.0
 11
16.75
 21
0.0
 31
0.0
  0
ENDBLK
  5
CD
330
CB
100
AcDbEntity
  8
0
100
AcDbBlockEnd
  0
BLOCK
  5
D8
330
D7
100
AcDbEntity
  8
0
100
AcDbBlockBegin
  2
SW_CENTERMARKSYMBOL_4
 70
     0
 10
0.0
 20
0.0
 30
0.0
  3
SW_CENTERMARKSYMBOL_4
  1

  0
LINE
  5
DA
330
D7
100
AcDbEntity
  8
FORMAT
 62
     0
100
AcDbLine
 10
0.0
 20
0.0
 30
0.0
 11
0.0
 21
2.5
 31
0.0
  0
LINE
  5
DB
330
D7
100
AcDbEntity
  8
FORMAT
 62
     0
100
AcDbLine
 10
0.0
 20
0.0
 30
0.0
 11
-2.5
 21
0.0
 31
0.0
  0
LINE
  5
DC
330
D7
100
AcDbEntity
  8
FORMAT
 62
     0
100
AcDbLine
 10
0.0
 20
0.0
 30
0.0
 11
0.0
 21
-2.5
 31
0.0
  0
LINE
  5
DD
330
D7
100
AcDbEntity
  8
FORMAT
 62
     0
100
AcDbLine
 10
0.0
 20
0.0
 30
0.0
 11
2.5
 21
0.0
 31
0.0
  0
LINE
  5
DE
330
D7
100
AcDbEntity
  8
FORMAT
 62
     0
100
AcDbLine
 10
0.0
 20
5.0
 30
0.0
 11
0.0
 21
17.75
 31
0.0
  0
LINE
  5
DF
330
D7
100
AcDbEntity
  8
FORMAT
 62
     0
100
AcDbLine
 10
-5.0
 20
0.0
 30
0.0
 11
-17.75
 21
0.0
 31
0.0
  0
LINE
  5
E0
330
D7
100
AcDbEntity
  8
FORMAT
 62
     0
100
AcDbLine
 10
0.0
 20
-5.0
 30
0.0
 11
0.0
 21
-17.75
 31
0.0
  0
LINE
  5
E1
330
D7
100
AcDbEntity
  8
FORMAT
 62
     0
100
AcDbLine
 10
5.0
 20
0.0
 30
0.0
 11
17.75
 21
0.0
 31
0.0
  0
ENDBLK
  5
D9
330
D7
100
AcDbEntity
  8
0
100
AcDbBlockEnd
  0
BLOCK
  5
E4
330
E3
100
AcDbEntity
  8
0
100
AcDbBlockBegin
  2
SW_CENTERMARKSYMBOL_5
 70
     0
 10
0.0
 20
0.0
 30
0.0
  3
SW_CENTERMARKSYMBOL_5
  1

  0
LINE
  5
E6
330
E3
100
AcDbEntity
  8
FORMAT
 62
     0
100
AcDbLine
 10
0.0
 20
0.0
 30
0.0
 11
0.0
 21
2.5
 31
0.0
  0
LINE
  5
E7
330
E3
100
AcDbEntity
  8
FORMAT
 62
     0
100
AcDbLine
 10
0.0
 20
0.0
 30
0.0
 11
-2.5
 21
0.0
 31
0.0
  0
LINE
  5
E8
330
E3
100
AcDbEntity
  8
FORMAT
 62
     0
100
AcDbLine
 10
0.0
 20
0.0
 30
0.0
 11
0.0
 21
-2.5
 31
0.0
  0
LINE
  5
E9
330
E3
100
AcDbEntity
  8
FORMAT
 62
     0
100
AcDbLine
 10
0.0
 20
0.0
 30
0.0
 11
2.5
 21
0.0
 31
0.0
  0
LINE
  5
EA
330
E3
100
AcDbEntity
  8
FORMAT
 62
     0
100
AcDbLine
 10
0.0
 20
5.0
 30
0.0
 11
0.0
 21
17.75
 31
0.0
  0
LINE
  5
EB
330
E3
100
AcDbEntity
  8
FORMAT
 62
     0
100
AcDbLine
 10
-5.0
 20
0.0
 30
0.0
 11
-17.75
 21
0.0
 31
0.0
  0
LINE
  5
EC
330
E3
100
AcDbEntity
  8
FORMAT
 62
     0
100
AcDbLine
 10
0.0
 20
-5.0
 30
0.0
 11
0.0
 21
-17.75
 31
0.0
  0
LINE
  5
ED
330
E3
100
AcDbEntity
  8
FORMAT
 62
     0
100
AcDbLine
 10
5.0
 20
0.0
 30
0.0
 11
17.75
 21
0.0
 31
0.0
  0
ENDBLK
  5
E5
330
E3
100
AcDbEntity
  8
0
100
AcDbBlockEnd
  0
BLOCK
  5
F0
330
EF
100
AcDbEntity
  8
0
100
AcDbBlockBegin
  2
SW_CENTERMARKSYMBOL_6
 70
     0
 10
0.0
 20
0.0
 30
0.0
  3
SW_CENTERMARKSYMBOL_6
  1

  0
LINE
  5
F2
330
EF
100
AcDbEntity
  8
FORMAT
 62
     0
100
AcDbLine
 10
0.0
 20
0.0
 30
0.0
 11
0.0
 21
2.5
 31
0.0
  0
LINE
  5
F3
330
EF
100
AcDbEntity
  8
FORMAT
 62
     0
100
AcDbLine
 10
0.0
 20
0.0
 30
0.0
 11
-2.5
 21
0.0
 31
0.0
  0
LINE
  5
F4
330
EF
100
AcDbEntity
  8
FORMAT
 62
     0
100
AcDbLine
 10
0.0
 20
0.0
 30
0.0
 11
0.0
 21
-2.5
 31
0.0
  0
LINE
  5
F5
330
EF
100
AcDbEntity
  8
FORMAT
 62
     0
100
AcDbLine
 10
0.0
 20
0.0
 30
0.0
 11
2.5
 21
0.0
 31
0.0
  0
LINE
  5
F6
330
EF
100
AcDbEntity
  8
FORMAT
 62
     0
100
AcDbLine
 10
0.0
 20
5.0
 30
0.0
 11
0.0
 21
17.75
 31
0.0
  0
LINE
  5
F7
330
EF
100
AcDbEntity
  8
FORMAT
 62
     0
100
AcDbLine
 10
-5.0
 20
0.0
 30
0.0
 11
-17.75
 21
0.0
 31
0.0
  0
LINE
  5
F8
330
EF
100
AcDbEntity
  8
FORMAT
 62
     0
100
AcDbLine
 10
0.0
 20
-5.0
 30
0.0
 11
0.0
 21
-17.75
 31
0.0
  0
LINE
  5
F9
330
EF
100
AcDbEntity
  8
FORMAT
 62
     0
100
AcDbLine
 10
5.0
 20
0.0
 30
0.0
 11
17.75
 21
0.0
 31
0.0
  0
ENDBLK
  5
F1
330
EF
100
AcDbEntity
  8
0
100
AcDbBlockEnd
  0
BLOCK
  5
FC
330
FB
100
AcDbEntity
  8
0
100
AcDbBlockBegin
  2
SW_CENTERMARKSYMBOL_7
 70
     0
 10
0.0
 20
0.0
 30
0.0
  3
SW_CENTERMARKSYMBOL_7
  1

  0
LINE
  5
FE
330
FB
100
AcDbEntity
  8
FORMAT
 62
     0
100
AcDbLine
 10
0.0
 20
0.0
 30
0.0
 11
0.0
 21
2.5
 31
0.0
  0
LINE
  5
FF
330
FB
100
AcDbEntity
  8
FORMAT
 62
     0
100
AcDbLine
 10
0.0
 20
0.0
 30
0.0
 11
-2.5
 21
0.0
 31
0.0
  0
LINE
  5
100
330
FB
100
AcDbEntity
  8
FORMAT
 62
     0
100
AcDbLine
 10
0.0
 20
0.0
 30
0.0
 11
0.0
 21
-2.5
 31
0.0
  0
LINE
  5
101
330
FB
100
AcDbEntity
  8
FORMAT
 62
     0
100
AcDbLine
 10
0.0
 20
0.0
 30
0.0
 11
2.5
 21
0.0
 31
0.0
  0
LINE
  5
102
330
FB
100
AcDbEntity
  8
FORMAT
 62
     0
100
AcDbLine
 10
0.0
 20
5.0
 30
0.0
 11
0.0
 21
17.75
 31
0.0
  0
LINE
  5
103
330
FB
100
AcDbEntity
  8
FORMAT
 62
     0
100
AcDbLine
 10
-5.0
 20
0.0
 30
0.0
 11
-17.75
 21
0.0
 31
0.0
  0
LINE
  5
104
330
FB
100
AcDbEntity
  8
FORMAT
 62
     0
100
AcDbLine
 10
0.0
 20
-5.0
 30
0.0
 11
0.0
 21
-17.75
 31
0.0
  0
LINE
  5
105
330
FB
100
AcDbEntity
  8
FORMAT
 62
     0
100
AcDbLine
 10
5.0
 20
0.0
 30
0.0
 11
17.75
 21
0.0
 31
0.0
  0
ENDBLK
  5
FD
330
FB
100
AcDbEntity
  8
0
100
AcDbBlockEnd
  0
BLOCK
  5
108
330
107
100
AcDbEntity
  8
0
100
AcDbBlockBegin
  2
SW_CENTERMARKSYMBOL_8
 70
     0
 10
0.0
 20
0.0
 30
0.0
  3
SW_CENTERMARKSYMBOL_8
  1

  0
LINE
  5
10A
330
107
100
AcDbEntity
  8
FORMAT
 62
     0
100
AcDbLine
 10
0.0
 20
0.0
 30
0.0
 11
0.0
 21
2.5
 31
0.0
  0
LINE
  5
10B
330
107
100
AcDbEntity
  8
FORMAT
 62
     0
100
AcDbLine
 10
0.0
 20
0.0
 30
0.0
 11
-2.5
 21
0.0
 31
0.0
  0
LINE
  5
10C
330
107
100
AcDbEntity
  8
FORMAT
 62
     0
100
AcDbLine
 10
0.0
 20
0.0
 30
0.0
 11
0.0
 21
-2.5
 31
0.0
  0
LINE
  5
10D
330
107
100
AcDbEntity
  8
FORMAT
 62
     0
100
AcDbLine
 10
0.0
 20
0.0
 30
0.0
 11
2.5
 21
0.0
 31
0.0
  0
LINE
  5
10E
330
107
100
AcDbEntity
  8
FORMAT
 62
     0
100
AcDbLine
 10
0.0
 20
5.0
 30
0.0
 11
0.0
 21
17.75
 31
0.0
  0
LINE
  5
10F
330
107
100
AcDbEntity
  8
FORMAT
 62
     0
100
AcDbLine
 10
-5.0
 20
0.0
 30
0.0
 11
-17.75
 21
0.0
 31
0.0
  0
LINE
  5
110
330
107
100
AcDbEntity
  8
FORMAT
 62
     0
100
AcDbLine
 10
0.0
 20
-5.0
 30
0.0
 11
0.0
 21
-17.75
 31
0.0
  0
LINE
  5
111
330
107
100
AcDbEntity
  8
FORMAT
 62
     0
100
AcDbLine
 10
5.0
 20
0.0
 30
0.0
 11
17.75
 21
0.0
 31
0.0
  0
ENDBLK
  5
109
330
107
100
AcDbEntity
  8
0
100
AcDbBlockEnd
  0
BLOCK
  5
114
330
113
100
AcDbEntity
  8
0
100
AcDbBlockBegin
  2
SW_CENTERMARKSYMBOL_9
 70
     0
 10
0.0
 20
0.0
 30
0.0
  3
SW_CENTERMARKSYMBOL_9
  1

  0
LINE
  5
116
330
113
100
AcDbEntity
  8
FORMAT
 62
     0
100
AcDbLine
 10
0.0
 20
0.0
 30
0.0
 11
0.0
 21
2.5
 31
0.0
  0
LINE
  5
117
330
113
100
AcDbEntity
  8
FORMAT
 62
     0
100
AcDbLine
 10
0.0
 20
0.0
 30
0.0
 11
-2.5
 21
0.0
 31
0.0
  0
LINE
  5
118
330
113
100
AcDbEntity
  8
FORMAT
 62
     0
100
AcDbLine
 10
0.0
 20
0.0
 30
0.0
 11
0.0
 21
-2.5
 31
0.0
  0
LINE
  5
119
330
113
100
AcDbEntity
  8
FORMAT
 62
     0
100
AcDbLine
 10
0.0
 20
0.0
 30
0.0
 11
2.5
 21
0.0
 31
0.0
  0
LINE
  5
11A
330
113
100
AcDbEntity
  8
FORMAT
 62
     0
100
AcDbLine
 10
0.0
 20
5.0
 30
0.0
 11
0.0
 21
17.75
 31
0.0
  0
LINE
  5
11B
330
113
100
AcDbEntity
  8
FORMAT
 62
     0
100
AcDbLine
 10
-5.0
 20
0.0
 30
0.0
 11
-17.75
 21
0.0
 31
0.0
  0
LINE
  5
11C
330
113
100
AcDbEntity
  8
FORMAT
 62
     0
100
AcDbLine
 10
0.0
 20
-5.0
 30
0.0
 11
0.0
 21
-17.75
 31
0.0
  0
LINE
  5
11D
330
113
100
AcDbEntity
  8
FORMAT
 62
     0
100
AcDbLine
 10
5.0
 20
0.0
 30
0.0
 11
17.75
 21
0.0
 31
0.0
  0
ENDBLK
  5
115
330
113
100
AcDbEntity
  8
0
100
AcDbBlockEnd
  0
BLOCK
  5
120
330
11F
100
AcDbEntity
  8
0
100
AcDbBlockBegin
  2
SW_CENTERMARKSYMBOL_10
 70
     0
 10
0.0
 20
0.0
 30
0.0
  3
SW_CENTERMARKSYMBOL_10
  1

  0
LINE
  5
122
330
11F
100
AcDbEntity
  8
FORMAT
 62
     0
100
AcDbLine
 10
0.0
 20
0.0
 30
0.0
 11
0.0
 21
2.5
 31
0.0
  0
LINE
  5
123
330
11F
100
AcDbEntity
  8
FORMAT
 62
     0
100
AcDbLine
 10
0.0
 20
0.0
 30
0.0
 11
-2.5
 21
0.0
 31
0.0
  0
LINE
  5
124
330
11F
100
AcDbEntity
  8
FORMAT
 62
     0
100
AcDbLine
 10
0.0
 20
0.0
 30
0.0
 11
0.0
 21
-2.5
 31
0.0
  0
LINE
  5
125
330
11F
100
AcDbEntity
  8
FORMAT
 62
     0
100
AcDbLine
 10
0.0
 20
0.0
 30
0.0
 11
2.5
 21
0.0
 31
0.0
  0
LINE
  5
126
330
11F
100
AcDbEntity
  8
FORMAT
 62
     0
100
AcDbLine
 10
0.0
 20
5.0
 30
0.0
 11
0.0
 21
17.75
 31
0.0
  0
LINE
  5
127
330
11F
100
AcDbEntity
  8
FORMAT
 62
     0
100
AcDbLine
 10
-5.0
 20
0.0
 30
0.0
 11
-17.75
 21
0.0
 31
0.0
  0
LINE
  5
128
330
11F
100
AcDbEntity
  8
FORMAT
 62
     0
100
AcDbLine
 10
0.0
 20
-5.0
 30
0.0
 11
0.0
 21
-17.75
 31
0.0
  0
LINE
  5
129
330
11F
100
AcDbEntity
  8
FORMAT
 62
     0
100
AcDbLine
 10
5.0
 20
0.0
 30
0.0
 11
17.75
 21
0.0
 31
0.0
  0
ENDBLK
  5
121
330
11F
100
AcDbEntity
  8
0
100
AcDbBlockEnd
  0
BLOCK
  5
12C
330
12B
100
AcDbEntity
  8
0
100
AcDbBlockBegin
  2
SW_CENTERMARKSYMBOL_11
 70
     0
 10
0.0
 20
0.0
 30
0.0
  3
SW_CENTERMARKSYMBOL_11
  1

  0
LINE
  5
12E
330
12B
100
AcDbEntity
  8
FORMAT
 62
     0
100
AcDbLine
 10
0.0
 20
0.0
 30
0.0
 11
0.0
 21
2.5
 31
0.0
  0
LINE
  5
12F
330
12B
100
AcDbEntity
  8
FORMAT
 62
     0
100
AcDbLine
 10
0.0
 20
0.0
 30
0.0
 11
-2.5
 21
0.0
 31
0.0
  0
LINE
  5
130
330
12B
100
AcDbEntity
  8
FORMAT
 62
     0
100
AcDbLine
 10
0.0
 20
0.0
 30
0.0
 11
0.0
 21
-2.5
 31
0.0
  0
LINE
  5
131
330
12B
100
AcDbEntity
  8
FORMAT
 62
     0
100
AcDbLine
 10
0.0
 20
0.0
 30
0.0
 11
2.5
 21
0.0
 31
0.0
  0
LINE
  5
132
330
12B
100
AcDbEntity
  8
FORMAT
 62
     0
100
AcDbLine
 10
0.0
 20
5.0
 30
0.0
 11
0.0
 21
17.75
 31
0.0
  0
LINE
  5
133
330
12B
100
AcDbEntity
  8
FORMAT
 62
     0
100
AcDbLine
 10
-5.0
 20
0.0
 30
0.0
 11
-17.75
 21
0.0
 31
0.0
  0
LINE
  5
134
330
12B
100
AcDbEntity
  8
FORMAT
 62
     0
100
AcDbLine
 10
0.0
 20
-5.0
 30
0.0
 11
0.0
 21
-17.75
 31
0.0
  0
LINE
  5
135
330
12B
100
AcDbEntity
  8
FORMAT
 62
     0
100
AcDbLine
 10
5.0
 20
0.0
 30
0.0
 11
17.75
 21
0.0
 31
0.0
  0
ENDBLK
  5
12D
330
12B
100
AcDbEntity
  8
0
100
AcDbBlockEnd
  0
BLOCK
  5
138
330
137
100
AcDbEntity
  8
0
100
AcDbBlockBegin
  2
SW_CENTERMARKSYMBOL_12
 70
     0
 10
0.0
 20
0.0
 30
0.0
  3
SW_CENTERMARKSYMBOL_12
  1

  0
LINE
  5
13A
330
137
100
AcDbEntity
  8
FORMAT
 62
     0
100
AcDbLine
 10
0.0
 20
0.0
 30
0.0
 11
0.0
 21
2.5
 31
0.0
  0
LINE
  5
13B
330
137
100
AcDbEntity
  8
FORMAT
 62
     0
100
AcDbLine
 10
0.0
 20
0.0
 30
0.0
 11
-2.5
 21
0.0
 31
0.0
  0
LINE
  5
13C
330
137
100
AcDbEntity
  8
FORMAT
 62
     0
100
AcDbLine
 10
0.0
 20
0.0
 30
0.0
 11
0.0
 21
-2.5
 31
0.0
  0
LINE
  5
13D
330
137
100
AcDbEntity
  8
FORMAT
 62
     0
100
AcDbLine
 10
0.0
 20
0.0
 30
0.0
 11
2.5
 21
0.0
 31
0.0
  0
LINE
  5
13E
330
137
100
AcDbEntity
  8
FORMAT
 62
     0
100
AcDbLine
 10
0.0
 20
5.0
 30
0.0
 11
0.0
 21
17.75
 31
0.0
  0
LINE
  5
13F
330
137
100
AcDbEntity
  8
FORMAT
 62
     0
100
AcDbLine
 10
-5.0
 20
0.0
 30
0.0
 11
-17.75
 21
0.0
 31
0.0
  0
LINE
  5
140
330
137
100
AcDbEntity
  8
FORMAT
 62
     0
100
AcDbLine
 10
0.0
 20
-5.0
 30
0.0
 11
0.0
 21
-17.75
 31
0.0
  0
LINE
  5
141
330
137
100
AcDbEntity
  8
FORMAT
 62
     0
100
AcDbLine
 10
5.0
 20
0.0
 30
0.0
 11
17.75
 21
0.0
 31
0.0
  0
ENDBLK
  5
139
330
137
100
AcDbEntity
  8
0
100
AcDbBlockEnd
  0
BLOCK
  5
144
330
143
100
AcDbEntity
  8
0
100
AcDbBlockBegin
  2
SW_CENTERMARKSYMBOL_13
 70
     0
 10
0.0
 20
0.0
 30
0.0
  3
SW_CENTERMARKSYMBOL_13
  1

  0
LINE
  5
146
330
143
100
AcDbEntity
  8
FORMAT
 62
     0
100
AcDbLine
 10
0.0
 20
0.0
 30
0.0
 11
0.0
 21
2.5
 31
0.0
  0
LINE
  5
147
330
143
100
AcDbEntity
  8
FORMAT
 62
     0
100
AcDbLine
 10
0.0
 20
0.0
 30
0.0
 11
-2.5
 21
0.0
 31
0.0
  0
LINE
  5
148
330
143
100
AcDbEntity
  8
FORMAT
 62
     0
100
AcDbLine
 10
0.0
 20
0.0
 30
0.0
 11
0.0
 21
-2.5
 31
0.0
  0
LINE
  5
149
330
143
100
AcDbEntity
  8
FORMAT
 62
     0
100
AcDbLine
 10
0.0
 20
0.0
 30
0.0
 11
2.5
 21
0.0
 31
0.0
  0
LINE
  5
14A
330
143
100
AcDbEntity
  8
FORMAT
 62
     0
100
AcDbLine
 10
0.0
 20
5.0
 30
0.0
 11
0.0
 21
17.75
 31
0.0
  0
LINE
  5
14B
330
143
100
AcDbEntity
  8
FORMAT
 62
     0
100
AcDbLine
 10
-5.0
 20
0.0
 30
0.0
 11
-17.75
 21
0.0
 31
0.0
  0
LINE
  5
14C
330
143
100
AcDbEntity
  8
FORMAT
 62
     0
100
AcDbLine
 10
0.0
 20
-5.0
 30
0.0
 11
0.0
 21
-17.75
 31
0.0
  0
LINE
  5
14D
330
143
100
AcDbEntity
  8
FORMAT
 62
     0
100
AcDbLine
 10
5.0
 20
0.0
 30
0.0
 11
17.75
 21
0.0
 31
0.0
  0
ENDBLK
  5
145
330
143
100
AcDbEntity
  8
0
100
AcDbBlockEnd
  0
BLOCK
  5
150
330
14F
100
AcDbEntity
  8
0
100
AcDbBlockBegin
  2
SW_CENTERMARKSYMBOL_14
 70
     0
 10
0.0
 20
0.0
 30
0.0
  3
SW_CENTERMARKSYMBOL_14
  1

  0
LINE
  5
152
330
14F
100
AcDbEntity
  8
FORMAT
 62
     0
100
AcDbLine
 10
0.0
 20
0.0
 30
0.0
 11
0.0
 21
2.5
 31
0.0
  0
LINE
  5
153
330
14F
100
AcDbEntity
  8
FORMAT
 62
     0
100
AcDbLine
 10
0.0
 20
0.0
 30
0.0
 11
-2.5
 21
0.0
 31
0.0
  0
LINE
  5
154
330
14F
100
AcDbEntity
  8
FORMAT
 62
     0
100
AcDbLine
 10
0.0
 20
0.0
 30
0.0
 11
0.0
 21
-2.5
 31
0.0
  0
LINE
  5
155
330
14F
100
AcDbEntity
  8
FORMAT
 62
     0
100
AcDbLine
 10
0.0
 20
0.0
 30
0.0
 11
2.5
 21
0.0
 31
0.0
  0
LINE
  5
156
330
14F
100
AcDbEntity
  8
FORMAT
 62
     0
100
AcDbLine
 10
0.0
 20
5.0
 30
0.0
 11
0.0
 21
17.75
 31
0.0
  0
LINE
  5
157
330
14F
100
AcDbEntity
  8
FORMAT
 62
     0
100
AcDbLine
 10
-5.0
 20
0.0
 30
0.0
 11
-17.75
 21
0.0
 31
0.0
  0
LINE
  5
158
330
14F
100
AcDbEntity
  8
FORMAT
 62
     0
100
AcDbLine
 10
0.0
 20
-5.0
 30
0.0
 11
0.0
 21
-17.75
 31
0.0
  0
LINE
  5
159
330
14F
100
AcDbEntity
  8
FORMAT
 62
     0
100
AcDbLine
 10
5.0
 20
0.0
 30
0.0
 11
17.75
 21
0.0
 31
0.0
  0
ENDBLK
  5
151
330
14F
100
AcDbEntity
  8
0
100
AcDbBlockEnd
  0
BLOCK
  5
15C
330
15B
100
AcDbEntity
  8
0
100
AcDbBlockBegin
  2
SW_CENTERMARKSYMBOL_15
 70
     0
 10
0.0
 20
0.0
 30
0.0
  3
SW_CENTERMARKSYMBOL_15
  1

  0
LINE
  5
15E
330
15B
100
AcDbEntity
  8
FORMAT
 62
     0
100
AcDbLine
 10
0.0
 20
0.0
 30
0.0
 11
0.0
 21
2.5
 31
0.0
  0
LINE
  5
15F
330
15B
100
AcDbEntity
  8
FORMAT
 62
     0
100
AcDbLine
 10
0.0
 20
0.0
 30
0.0
 11
-2.5
 21
0.0
 31
0.0
  0
LINE
  5
160
330
15B
100
AcDbEntity
  8
FORMAT
 62
     0
100
AcDbLine
 10
0.0
 20
0.0
 30
0.0
 11
0.0
 21
-2.5
 31
0.0
  0
LINE
  5
161
330
15B
100
AcDbEntity
  8
FORMAT
 62
     0
100
AcDbLine
 10
0.0
 20
0.0
 30
0.0
 11
2.5
 21
0.0
 31
0.0
  0
LINE
  5
162
330
15B
100
AcDbEntity
  8
FORMAT
 62
     0
100
AcDbLine
 10
0.0
 20
5.0
 30
0.0
 11
0.0
 21
17.75
 31
0.0
  0
LINE
  5
163
330
15B
100
AcDbEntity
  8
FORMAT
 62
     0
100
AcDbLine
 10
-5.0
 20
0.0
 30
0.0
 11
-17.75
 21
0.0
 31
0.0
  0
LINE
  5
164
330
15B
100
AcDbEntity
  8
FORMAT
 62
     0
100
AcDbLine
 10
0.0
 20
-5.0
 30
0.0
 11
0.0
 21
-17.75
 31
0.0
  0
LINE
  5
165
330
15B
100
AcDbEntity
  8
FORMAT
 62
     0
100
AcDbLine
 10
5.0
 20
0.0
 30
0.0
 11
17.75
 21
0.0
 31
0.0
  0
ENDBLK
  5
15D
330
15B
100
AcDbEntity
  8
0
100
AcDbBlockEnd
  0
ENDSEC
  0
SECTION
  2
ENTITIES
  0
CIRCLE
  5
83
330
1F
100
AcDbEntity
  8
0
  6
Continuous
 62
     7
370
    25
100
AcDbCircle
 10
-55.7021710828
 20
306.5037607764
 30
0.0
 40
15.25000000000001
  0
CIRCLE
  5
84
330
1F
100
AcDbEntity
  8
0
  6
Continuous
 62
     7
370
    25
100
AcDbCircle
 10
-134.7394061796
 20
115.6909958732
 30
0.0
 40
15.25
  0
CIRCLE
  5
85
330
1F
100
AcDbEntity
  8
0
  6
Continuous
 62
     7
370
    25
100
AcDbCircle
 10
-55.7021710828
 20
-75.12176903
 30
0.0
 40
15.24999999999999
  0
CIRCLE
  5
86
330
1F
100
AcDbEntity
  8
0
  6
Continuous
 62
     7
370
    25
100
AcDbCircle
 10
135.1105938204
 20
-154.1590041268
 30
0.0
 40
15.25
  0
CIRCLE
  5
87
330
1F
100
AcDbEntity
  8
0
  6
Continuous
 62
     7
370
    25
100
AcDbCircle
 10
325.9233587236
 20
-75.12176903
 30
0.0
 40
15.25
  0
CIRCLE
  5
88
330
1F
100
AcDbEntity
  8
0
  6
Continuous
 62
     7
370
    25
100
AcDbCircle
 10
384.4194856686
 20
218.9581200969
 30
0.0
 40
15.25
  0
CIRCLE
  5
89
330
1F
100
AcDbEntity
  8
0
  6
Continuous
 62
     7
370
    25
100
AcDbCircle
 10
238.3777180441
 20
364.9998877214
 30
0.0
 40
15.25000000000009
  0
CIRCLE
  5
8A
330
1F
100
AcDbEntity
  8
0
  6
Continuous
 62
     7
370
    25
100
AcDbCircle
 10
135.1105938204
 20
385.5409958732
 30
0.0
 40
15.25
  0
CIRCLE
  5
8B
330
1F
100
AcDbEntity
  8
0
  6
Continuous
 62
     7
370
    25
100
AcDbCircle
 10
135.1105938204
 20
115.6909958732
 30
0.0
 40
297.0
  0
CIRCLE
  5
8C
330
1F
100
AcDbEntity
  8
0
  6
Continuous
 62
     7
370
    25
100
AcDbCircle
 10
135.1105938204
 20
115.6909958732
 30
0.0
 40
216.0
  0
CIRCLE
  5
8D
330
1F
100
AcDbEntity
  8
0
  6
Continuous
 62
     7
370
    25
100
AcDbCircle
 10
404.9605938204
 20
115.6909958732
 30
0.0
 40
15.25000000000011
  0
CIRCLE
  5
8E
330
1F
100
AcDbEntity
  8
0
  6
Continuous
 62
     7
370
    25
100
AcDbCircle
 10
325.9233587236
 20
306.5037607764
 30
0.0
 40
15.25
  0
CIRCLE
  5
8F
330
1F
100
AcDbEntity
  8
0
  6
Continuous
 62
     7
370
    25
100
AcDbCircle
 10
384.4194856686
 20
12.4238716495
 30
0.0
 40
15.25000000000011
  0
CIRCLE
  5
90
330
1F
100
AcDbEntity
  8
0
  6
Continuous
 62
     7
370
    25
100
AcDbCircle
 10
238.3777180441
 20
-133.617895975
 30
0.0
 40
15.25000000000006
  0
CIRCLE
  5
91
330
1F
100
AcDbEntity
  8
0
  6
Continuous
 62
     7
370
    25
100
AcDbCircle
 10
31.8434695967
 20
-133.617895975
 30
0.0
 40
15.25
  0
CIRCLE
  5
92
330
1F
100
AcDbEntity
  8
0
  6
Continuous
 62
     7
370
    25
100
AcDbCircle
 10
-114.1982980278
 20
12.4238716495
 30
0.0
 40
15.24999999999999
  0
CIRCLE
  5
93
330
1F
100
AcDbEntity
  8
0
  6
Continuous
 62
     7
370
    25
100
AcDbCircle
 10
-114.1982980278
 20
218.9581200969
 30
0.0
 40
15.25000000000001
  0
CIRCLE
  5
94
330
1F
100
AcDbEntity
  8
0
  6
Continuous
 62
     7
370
    25
100
AcDbCircle
 10
31.8434695967
 20
364.9998877214
 30
0.0
 40
15.24999999999999
  0
CIRCLE
  5
95
330
1F
100
AcDbEntity
  8
0
  6
Continuous
 62
     7
370
    25
100
AcDbCircle
 10
384.4194856686
 20
12.4238716495
 30
0.0
 40
14.25000000000011
  0
CIRCLE
  5
96
330
1F
100
AcDbEntity
  8
0
  6
Continuous
 62
     7
370
    25
100
AcDbCircle
 10
325.9233587236
 20
306.5037607764
 30
0.0
 40
14.25
  0
CIRCLE
  5
97
330
1F
100
AcDbEntity
  8
0
  6
Continuous
 62
     7
370
    25
100
AcDbCircle
 10
404.9605938204
 20
115.6909958732
 30
0.0
 40
14.25000000000011
  0
CIRCLE
  5
98
330
1F
100
AcDbEntity
  8
0
  6
Continuous
 62
     7
370
    25
100
AcDbCircle
 10
135.1105938204
 20
115.6909958732
 30
0.0
 40
215.0
  0
CIRCLE
  5
99
330
1F
100
AcDbEntity
  8
0
  6
Continuous
 62
     7
370
    25
100
AcDbCircle
 10
135.1105938204
 20
115.6909958732
 30
0.0
 40
298.0
  0
CIRCLE
  5
9A
330
1F
100
AcDbEntity
  8
0
  6
Continuous
 62
     7
370
    25
100
AcDbCircle
 10
135.1105938204
 20
385.5409958732
 30
0.0
 40
14.25
  0
CIRCLE
  5
9B
330
1F
100
AcDbEntity
  8
0
  6
Continuous
 62
     7
370
    25
100
AcDbCircle
 10
238.3777180441
 20
364.9998877214
 30
0.0
 40
14.25000000000009
  0
CIRCLE
  5
9C
330
1F
100
AcDbEntity
  8
0
  6
Continuous
 62
     7
370
    25
100
AcDbCircle
 10
384.4194856686
 20
218.9581200969
 30
0.0
 40
14.25
  0
CIRCLE
  5
9D
330
1F
100
AcDbEntity
  8
0
  6
Continuous
 62
     7
370
    25
100
AcDbCircle
 10
325.9233587236
 20
-75.12176903
 30
0.0
 40
14.25
  0
CIRCLE
  5
9E
330
1F
100
AcDbEntity
  8
0
  6
Continuous
 62
     7
370
    25
100
AcDbCircle
 10
31.8434695967
 20
364.9998877214
 30
0.0
 40
14.24999999999999
  0
CIRCLE
  5
9F
330
1F
100
AcDbEntity
  8
0
  6
Continuous
 62
     7
370
    25
100
AcDbCircle
 10
-114.1982980278
 20
218.9581200969
 30
0.0
 40
14.25000000000001
  0
CIRCLE
  5
A0
330
1F
100
AcDbEntity
  8
0
  6
Continuous
 62
     7
370
    25
100
AcDbCircle
 10
-114.1982980278
 20
12.4238716495
 30
0.0
 40
14.24999999999999
  0
CIRCLE
  5
A1
330
1F
100
AcDbEntity
  8
0
  6
Continuous
 62
     7
370
    25
100
AcDbCircle
 10
31.8434695967
 20
-133.617895975
 30
0.0
 40
14.25
  0
CIRCLE
  5
A2
330
1F
100
AcDbEntity
  8
0
  6
Continuous
 62
     7
370
    25
100
AcDbCircle
 10
238.3777180441
 20
-133.617895975
 30
0.0
 40
14.25000000000006
  0
CIRCLE
  5
A3
330
1F
100
AcDbEntity
  8
0
  6
Continuous
 62
     7
370
    25
100
AcDbCircle
 10
-55.7021710828
 20
-75.12176903
 30
0.0
 40
14.24999999999999
  0
CIRCLE
  5
A4
330
1F
100
AcDbEntity
  8
0
  6
Continuous
 62
     7
370
    25
100
AcDbCircle
 10
-134.7394061796
 20
115.6909958732
 30
0.0
 40
14.25
  0
CIRCLE
  5
A5
330
1F
100
AcDbEntity
  8
0
  6
Continuous
 62
     7
370
    25
100
AcDbCircle
 10
135.1105938204
 20
-154.1590041268
 30
0.0
 40
14.25
  0
CIRCLE
  5
A6
330
1F
100
AcDbEntity
  8
0
  6
Continuous
 62
     7
370
    25
100
AcDbCircle
 10
-55.7021710828
 20
306.5037607764
 30
0.0
 40
14.25000000000001
  0
INSERT
  5
B2
330
1F
100
AcDbEntity
  8
FORMAT
 62
     7
100
AcDbBlockReference
  2
SW_CENTERMARKSYMBOL_0
 10
135.1105938204
 20
385.5409958732
 30
0.0
  0
INSERT
  5
BE
330
1F
100
AcDbEntity
  8
FORMAT
 62
     7
100
AcDbBlockReference
  2
SW_CENTERMARKSYMBOL_1
 10
238.3777180441
 20
364.9998877214
 30
0.0
  0
INSERT
  5
CA
330
1F
100
AcDbEntity
  8
FORMAT
 62
     7
100
AcDbBlockReference
  2
SW_CENTERMARKSYMBOL_2
 10
325.9233587236
 20
306.5037607764
 30
0.0
  0
INSERT
  5
D6
330
1F
100
AcDbEntity
  8
FORMAT
 62
     7
100
AcDbBlockReference
  2
SW_CENTERMARKSYMBOL_3
 10
384.4194856686
 20
218.9581200969
 30
0.0
  0
INSERT
  5
E2
330
1F
100
AcDbEntity
  8
FORMAT
 62
     7
100
AcDbBlockReference
  2
SW_CENTERMARKSYMBOL_4
 10
31.8434695967
 20
364.9998877214
 30
0.0
  0
INSERT
  5
EE
330
1F
100
AcDbEntity
  8
FORMAT
 62
     7
100
AcDbBlockReference
  2
SW_CENTERMARKSYMBOL_5
 10
-55.7021710828
 20
306.5037607764
 30
0.0
  0
INSERT
  5
FA
330
1F
100
AcDbEntity
  8
FORMAT
 62
     7
100
AcDbBlockReference
  2
SW_CENTERMARKSYMBOL_6
 10
-114.1982980278
 20
218.9581200969
 30
0.0
  0
INSERT
  5
106
330
1F
100
AcDbEntity
  8
FORMAT
 62
     7
100
AcDbBlockReference
  2
SW_CENTERMARKSYMBOL_7
 10
-134.7394061796
 20
115.6909958732
 30
0.0
  0
INSERT
  5
112
330
1F
100
AcDbEntity
  8
FORMAT
 62
     7
100
AcDbBlockReference
  2
SW_CENTERMARKSYMBOL_8
 10
-114.1982980278
 20
12.4238716495
 30
0.0
  0
INSERT
  5
11E
330
1F
100
AcDbEntity
  8
FORMAT
 62
     7
100
AcDbBlockReference
  2
SW_CENTERMARKSYMBOL_9
 10
-55.7021710828
 20
-75.12176903
 30
0.0
  0
INSERT
  5
12A
330
1F
100
AcDbEntity
  8
FORMAT
 62
     7
100
AcDbBlockReference
  2
SW_CENTERMARKSYMBOL_10
 10
31.8434695967
 20
-133.617895975
 30
0.0
  0
INSERT
  5
136
330
1F
100
AcDbEntity
  8
FORMAT
 62
     7
100
AcDbBlockReference
  2
SW_CENTERMARKSYMBOL_11
 10
135.1105938204
 20
-154.1590041268
 30
0.0
  0
INSERT
  5
142
330
1F
100
AcDbEntity
  8
FORMAT
 62
     7
100
AcDbBlockReference
  2
SW_CENTERMARKSYMBOL_12
 10
238.3777180441
 20
-133.617895975
 30
0.0
  0
INSERT
  5
14E
330
1F
100
AcDbEntity
  8
FORMAT
 62
     7
100
AcDbBlockReference
  2
SW_CENTERMARKSYMBOL_13
 10
325.9233587236
 20
-75.12176903
 30
0.0
  0
INSERT
  5
15A
330
1F
100
AcDbEntity
  8
FORMAT
 62
     7
100
AcDbBlockReference
  2
SW_CENTERMARKSYMBOL_14
 10
384.4194856686
 20
12.4238716495
 30
0.0
  0
INSERT
  5
166
330
1F
100
AcDbEntity
  8
FORMAT
 62
     7
100
AcDbBlockReference
  2
SW_CENTERMARKSYMBOL_15
 10
404.9605938204
 20
115.6909958732
 30
0.0
  0
ARC
  5
167
330
1F
100
AcDbEntity
  8
0
  6
Continuous
 62
     7
370
    25
100
AcDbCircle
 10
-534.918471314
 20
-181.3090041268
 30
0.0
 40
1.0
100
AcDbArc
 50
270.0
 51
0.0
  0
ARC
  5
168
330
1F
100
AcDbEntity
  8
0
  6
Continuous
 62
     7
370
    25
100
AcDbCircle
 10
-534.918471314
 20
412.6909958732
 30
0.0
 40
1.0
100
AcDbArc
 50
0.0
 51
90.0
  0
LINE
  5
169
330
1F
100
AcDbEntity
  8
0
  6
Continuous
 62
     7
370
    25
100
AcDbLine
 10
-534.918471314
 20
413.6909958732
 30
0.0
 11
-576.918471314
 21
413.6909958732
 31
0.0
  0
LINE
  5
16A
330
1F
100
AcDbEntity
  8
0
  6
Continuous
 62
     7
370
    25
100
AcDbLine
 10
-576.918471314
 20
-182.3090041268
 30
0.0
 11
-534.918471314
 21
-182.3090041268
 31
0.0
  0
ARC
  5
16B
330
1F
100
AcDbEntity
  8
0
  6
Continuous
 62
     7
370
    25
100
AcDbCircle
 10
-576.918471314
 20
-181.3090041268
 30
0.0
 40
1.0
100
AcDbArc
 50
180.0
 51
270.0
  0
ARC
  5
16C
330
1F
100
AcDbEntity
  8
0
  6
Continuous
 62
     7
370
    25
100
AcDbCircle
 10
-576.918471314
 20
412.6909958732
 30
0.0
 40
1.0
100
AcDbArc
 50
90.0
 51
180.0
  0
LINE
  5
16D
330
1F
100
AcDbEntity
  8
0
  6
Continuous
 62
     7
370
    25
100
AcDbLine
 10
-533.918471314
 20
115.6909958732
 30
0.0
 11
-533.918471314
 21
-181.3090041268
 31
0.0
  0
LINE
  5
16E
330
1F
100
AcDbEntity
  8
0
  6
Continuous
 62
     7
370
    25
100
AcDbLine
 10
-533.918471314
 20
412.6909958732
 30
0.0
 11
-533.918471314
 21
115.6909958732
 31
0.0
  0
LINE
  5
16F
330
1F
100
AcDbEntity
  8
0
  6
Continuous
 62
     7
370
    25
100
AcDbLine
 10
-577.918471314
 20
115.6909958732
 30
0.0
 11
-577.918471314
 21
412.6909958732
 31
0.0
  0
LINE
  5
170
330
1F
100
AcDbEntity
  8
0
  6
Continuous
 62
     7
370
    25
100
AcDbLine
 10
-577.918471314
 20
-181.3090041268
 30
0.0
 11
-577.918471314
 21
115.6909958732
 31
0.0
  0
LINE
  5
171
330
1F
100
AcDbEntity
  8
0
  6
Continuous
 62
     1
370
    25
100
AcDbLine
 10
-534.918471314
 20
115.6909958732
 30
0.0
 11
-534.918471314
 21
413.6909958732
 31
0.0
  0
LINE
  5
172
330
1F
100
AcDbEntity
  8
0
  6
Continuous
 62
     1
370
    25
100
AcDbLine
 10
-534.918471314
 20
-182.3090041268
 30
0.0
 11
-534.918471314
 21
115.6909958732
 31
0.0
  0
LINE
  5
173
330
1F
100
AcDbEntity
  8
0
  6
Continuous
 62
     1
370
    25
100
AcDbLine
 10
-576.918471314
 20
115.6909958732
 30
0.0
 11
-576.918471314
 21
-182.3090041268
 31
0.0
  0
LINE
  5
174
330
1F
100
AcDbEntity
  8
0
  6
Continuous
 62
     1
370
    25
100
AcDbLine
 10
-576.918471314
 20
413.6909958732
 30
0.0
 11
-576.918471314
 21
115.6909958732
 31
0.0
  0
ARC
  5
175
330
1F
100
AcDbEntity
  8
0
  6
Continuous
 62
     7
370
    25
100
AcDbCircle
 10
794.3678510994
 20
412.6909958732
 30
0.0
 40
1.0
100
AcDbArc
 50
90.0
 51
180.0
  0
ARC
  5
176
330
1F
100
AcDbEntity
  8
0
  6
Continuous
 62
     7
370
    25
100
AcDbCircle
 10
794.3678510994
 20
-181.3090041268
 30
0.0
 40
1.0
100
AcDbArc
 50
180.0
 51
270.0
  0
LINE
  5
177
330
1F
100
AcDbEntity
  8
0
  6
Continuous
 62
     7
370
    25
100
AcDbLine
 10
794.3678510994
 20
-182.3090041268
 30
0.0
 11
836.3678510994
 21
-182.3090041268
 31
0.0
  0
LINE
  5
178
330
1F
100
AcDbEntity
  8
0
  6
Continuous
 62
     7
370
    25
100
AcDbLine
 10
836.3678510994
 20
413.6909958732
 30
0.0
 11
794.3678510994
 21
413.6909958732
 31
0.0
  0
ARC
  5
179
330
1F
100
AcDbEntity
  8
0
  6
Continuous
 62
     7
370
    25
100
AcDbCircle
 10
836.3678510994
 20
412.6909958732
 30
0.0
 40
1.0
100
AcDbArc
 50
0.0
 51
90.0
  0
ARC
  5
17A
330
1F
100
AcDbEntity
  8
0
  6
Continuous
 62
     7
370
    25
100
AcDbCircle
 10
836.3678510994
 20
-181.3090041268
 30
0.0
 40
1.0
100
AcDbArc
 50
270.0
 51
0.0
  0
LINE
  5
17B
330
1F
100
AcDbEntity
  8
0
  6
Continuous
 62
     7
370
    25
100
AcDbLine
 10
793.3678510994
 20
-181.3090041268
 30
0.0
 11
793.3678510994
 21
412.6909958732
 31
0.0
  0
LINE
  5
17C
330
1F
100
AcDbEntity
  8
0
  6
Continuous
 62
     7
370
    25
100
AcDbLine
 10
837.3678510994
 20
412.6909958732
 30
0.0
 11
837.3678510994
 21
-181.3090041268
 31
0.0
  0
LINE
  5
17D
330
1F
100
AcDbEntity
  8
0
  6
Continuous
 62
     1
370
    25
100
AcDbLine
 10
794.3678510994
 20
413.6909958732
 30
0.0
 11
794.3678510994
 21
-182.3090041268
 31
0.0
  0
LINE
  5
17E
330
1F
100
AcDbEntity
  8
0
  6
Continuous
 62
     1
370
    25
100
AcDbLine
 10
836.3678510994
 20
-182.3090041268
 30
0.0
 11
836.3678510994
 21
413.6909958732
 31
0.0
  0
ARC
  5
17F
330
1F
100
AcDbEntity
  8
0
  6
Continuous
 62
     7
370
    25
100
AcDbCircle
 10
-161.8894061796
 20
588.1573386784
 30
0.0
 40
1.0
100
AcDbArc
 50
180.0
 51
270.0
  0
ARC
  5
180
330
1F
100
AcDbEntity
  8
0
  6
Continuous
 62
     7
370
    25
100
AcDbCircle
 10
432.1105938204
 20
588.1573386784
 30
0.0
 40
1.0
100
AcDbArc
 50
270.0
 51
0.0
  0
LINE
  5
181
330
1F
100
AcDbEntity
  8
0
  6
Continuous
 62
     7
370
    25
100
AcDbLine
 10
433.1105938204
 20
588.1573386784
 30
0.0
 11
433.1105938204
 21
630.1573386784
 31
0.0
  0
LINE
  5
182
330
1F
100
AcDbEntity
  8
0
  6
Continuous
 62
     7
370
    25
100
AcDbLine
 10
-162.8894061796
 20
630.1573386784
 30
0.0
 11
-162.8894061796
 21
588.1573386784
 31
0.0
  0
ARC
  5
183
330
1F
100
AcDbEntity
  8
0
  6
Continuous
 62
     7
370
    25
100
AcDbCircle
 10
-161.8894061796
 20
630.1573386784
 30
0.0
 40
1.000000000000114
100
AcDbArc
 50
90.0
 51
180.0
  0
ARC
  5
184
330
1F
100
AcDbEntity
  8
0
  6
Continuous
 62
     7
370
    25
100
AcDbCircle
 10
432.1105938204
 20
630.1573386784
 30
0.0
 40
1.000000000000114
100
AcDbArc
 50
0.0
 51
90.0
  0
LINE
  5
185
330
1F
100
AcDbEntity
  8
0
  6
Continuous
 62
     7
370
    25
100
AcDbLine
 10
432.1105938204
 20
587.1573386784
 30
0.0
 11
-161.8894061786
 21
587.1573386784
 31
0.0
  0
LINE
  5
186
330
1F
100
AcDbEntity
  8
0
  6
Continuous
 62
     7
370
    25
100
AcDbLine
 10
-161.8894061786
 20
631.1573386784
 30
0.0
 11
432.1105938204
 21
631.1573386784
 31
0.0
  0
LINE
  5
187
330
1F
100
AcDbEntity
  8
0
  6
Continuous
 62
     1
370
    25
100
AcDbLine
 10
-162.8894061796
 20
588.1573386784
 30
0.0
 11
433.1105938204
 21
588.1573386784
 31
0.0
  0
LINE
  5
188
330
1F
100
AcDbEntity
  8
0
  6
Continuous
 62
     1
370
    25
100
AcDbLine
 10
433.1105938204
 20
630.1573386784
 30
0.0
 11
-162.8894061796
 21
630.1573386784
 31
0.0
  0
ARC
  5
189
330
1F
100
AcDbEntity
  8
0
  6
Continuous
 62
     7
370
    25
100
AcDbCircle
 10
432.1105938204
 20
-492.8960404756
 30
0.0
 40
1.0
100
AcDbArc
 50
0.0
 51
90.0
  0
ARC
  5
18A
330
1F
100
AcDbEntity
  8
0
  6
Continuous
 62
     7
370
    25
100
AcDbCircle
 10
-161.8894061796
 20
-492.8960404756
 30
0.0
 40
1.0
100
AcDbArc
 50
90.0
 51
180.0
  0
LINE
  5
18B
330
1F
100
AcDbEntity
  8
0
  6
Continuous
 62
     7
370
    25
100
AcDbLine
 10
-162.8894061796
 20
-492.8960404756
 30
0.0
 11
-162.8894061796
 21
-534.8960404756
 31
0.0
  0
LINE
  5
18C
330
1F
100
AcDbEntity
  8
0
  6
Continuous
 62
     7
370
    25
100
AcDbLine
 10
433.1105938204
 20
-534.8960404756
 30
0.0
 11
433.1105938204
 21
-492.8960404756
 31
0.0
  0
ARC
  5
18D
330
1F
100
AcDbEntity
  8
0
  6
Continuous
 62
     7
370
    25
100
AcDbCircle
 10
432.1105938204
 20
-534.8960404756
 30
0.0
 40
1.0
100
AcDbArc
 50
270.0
 51
0.0
  0
ARC
  5
18E
330
1F
100
AcDbEntity
  8
0
  6
Continuous
 62
     7
370
    25
100
AcDbCircle
 10
-161.8894061796
 20
-534.8960404756
 30
0.0
 40
1.0
100
AcDbArc
 50
180.0
 51
270.0
  0
LINE
  5
18F
330
1F
100
AcDbEntity
  8
0
  6
Continuous
 62
     7
370
    25
100
AcDbLine
 10
-161.8894061786
 20
-491.8960404756
 30
0.0
 11
432.1105938204
 21
-491.8960404756
 31
0.0
  0
LINE
  5
190
330
1F
100
AcDbEntity
  8
0
  6
Continuous
 62
     7
370
    25
100
AcDbLine
 10
432.1105938204
 20
-535.8960404756
 30
0.0
 11
-161.8894061786
 21
-535.8960404756
 31
0.0
  0
LINE
  5
191
330
1F
100
AcDbEntity
  8
0
  6
Continuous
 62
     1
370
    25
100
AcDbLine
 10
433.1105938204
 20
-492.8960404756
 30
0.0
 11
-162.8894061796
 21
-492.8960404756
 31
0.0
  0
LINE
  5
192
330
1F
100
AcDbEntity
  8
0
  6
Continuous
 62
     1
370
    25
100
AcDbLine
 10
-162.8894061796
 20
-534.8960404756
 30
0.0
 11
433.1105938204
 21
-534.8960404756
 31
0.0
  0
SPLINE
  5
193
330
1F
100
AcDbEntity
  8
0
  6
Continuous
 62
     7
370
    25
100
AcDbSpline
210
0.0
220
0.0
230
1.0
 70
     8
 71
     3
 72
    88
 73
    84
 74
     0
 42
0.00000001
 43
0.00000001
 40
0.0
 40
0.0
 40
0.0
 40
0.0
 40
0.0043303454737437
 40
0.016766404479978
 40
0.0292062549397618
 40
0.0416497226853187
 40
0.0540965454068274
 40
0.0665464006318539
 40
0.078998931359558
 40
0.0914537679007884
 40
0.1039105452589796
 40
0.1163689160036416
 40
0.1288285590093558
 40
0.1412891846721337
 40
0.1537505373076093
 40
0.166212395426138
 40
0.1786745705080073
 40
0.1911369048002342
 40
0.2035992459848004
 40
0.2160614818967695
 40
0.2285235363550944
 40
0.240985351187626
 40
0.2534468835678944
 40
0.2659081036172587
 40
0.2783689922843978
 40
0.2908295394975737
 40
0.3032897425742963
 40
0.3157496048667749
 40
0.3282091346188273
 40
0.3406683440092141
 40
0.3531272483572008
 40
0.3655858654678451
 40
0.3780442150964713
 40
0.3905023185141164
 40
0.4029601981579289
 40
0.4154178773525134
 40
0.4278753800902675
 40
0.440332730860293
 40
0.4527899545170662
 40
0.465247076181265
 40
0.4777041211661657
 40
0.4901611149239933
 40
0.5026180830071669
 40
0.5150750510400123
 40
0.5275320390292193
 40
0.5399890697958608
 40
0.5524461690656288
 40
0.5649033625575581
 40
0.5773606759521183
 40
0.5898181348474447
 40
0.6022757646988294
 40
0.6147335907361342
 40
0.6271916378530914
 40
0.6396499304615253
 40
0.6521084923022796
 40
0.6645673462033885
 40
0.6770265137743066
 40
0.6894860150233363
 40
0.7019458678832247
 40
0.7144060876277673
 40
0.7268666861599485
 40
0.7393276711497968
 40
0.7517890449981112
 40
0.7642508036006573
 40
0.7767129348868989
 40
0.7891754171083805
 40
0.8016382168556445
 40
0.8141012867897711
 40
0.8265645630875845
 40
0.8390279626195287
 40
0.8514913507377443
 40
0.8639545761301594
 40
0.8764174690551979
 40
0.8888798273565014
 40
0.9013414143749685
 40
0.913801957991016
 40
0.9262611513601137
 40
0.9387186560048745
 40
0.9511741079870277
 40
0.9636271278680597
 40
0.9760773350350055
 40
0.9885243666732174
 40
1.0
 40
1.0
 40
1.0
 40
1.0
 10
953.004752234397
 20
-325.6122213157965
 30
0.0
 10
952.3163867633256
 20
-325.5409021507148
 30
0.0
 10
949.6511458517139
 20
-325.2647657601696
 30
0.0
 10
944.8960836279364
 20
-325.0804722983616
 30
0.0
 10
938.746791489243
 20
-325.060647997457
 30
0.0
 10
932.4932281853073
 20
-325.3494629162917
 30
0.0
 10
926.1516477026253
 20
-325.9217642812836
 30
0.0
 10
919.7262926701867
 20
-326.7836709714085
 30
0.0
 10
913.2247541754857
 20
-327.9325036383605
 30
0.0
 10
906.6538360415453
 20
-329.3675271856098
 30
0.0
 10
900.0206461903255
 20
-331.0870750905822
 30
0.0
 10
893.3322884690965
 20
-333.0893257873495
 30
0.0
 10
886.5959312846463
 20
-335.3721012872636
 30
0.0
 10
879.8187768369876
 20
-337.9329284637388
 30
0.0
 10
873.0080583728942
 20
-340.7690301552005
 30
0.0
 10
866.1710310364568
 20
-343.8773350395854
 30
0.0
 10
859.3149652598504
 20
-347.2544823006946
 30
0.0
 10
852.4471441812178
 20
-350.8968252621954
 30
0.0
 10
845.5748545207131
 20
-354.8004374010129
 30
0.0
 10
838.7053776475232
 20
-358.9611189347334
 30
0.0
 10
831.8459793105361
 20
-363.3744050568228
 30
0.0
 10
825.0039063027355
 20
-368.0355699923427
 30
0.0
 10
818.1863828206773
 20
-372.9396305375134
 30
0.0
 10
811.4006039321267
 20
-378.0813512839354
 30
0.0
 10
804.653728926877
 20
-383.4552499926865
 30
0.0
 10
797.9528745617749
 20
-389.0556031506293
 30
0.0
 10
791.3051082163477
 20
-394.8764517333449
 30
0.0
 10
784.7174409786508
 20
-400.9116071921327
 30
0.0
 10
778.1968206825054
 20
-407.1546576764688
 30
0.0
 10
771.7501249176311
 20
-413.5989744982961
 30
0.0
 10
765.384154033762
 20
-420.2377188404197
 30
0.0
 10
759.1056241589337
 20
-427.0638487079779
 30
0.0
 10
752.9211602509597
 20
-434.070126119383
 30
0.0
 10
746.8372891998423
 20
-441.2491245310879
 30
0.0
 10
740.8604329975632
 20
-448.5932364889765
 30
0.0
 10
734.9969019904521
 20
-456.0946814979945
 30
0.0
 10
729.2528882281655
 20
-463.7455141007094
 30
0.0
 10
723.6344589222342
 20
-471.5376321548205
 30
0.0
 10
718.147550026183
 20
-479.4627852991076
 30
0.0
 10
712.7979599483554
 20
-487.5125835969019
 30
0.0
 10
707.5913434078271
 20
-495.6785063458519
 30
0.0
 10
702.5332054430947
 20
-503.9519110425092
 30
0.0
 10
697.6288955826892
 20
-512.3240424899354
 30
0.0
 10
692.8836029057544
 20
-520.7860407534317
 30
0.0
 10
688.3023500839436
 20
-529.3289510865116
 30
0.0
 10
683.8899876631762
 20
-537.9437340519225
 30
0.0
 10
679.6511883469312
 20
-546.6212764371165
 30
0.0
 10
675.5904425192807
 20
-555.3524003016769
 30
0.0
 10
671.7120539058676
 20
-564.1278720285333
 30
0.0
 10
668.0201350935974
 20
-572.9384120908875
 30
0.0
 10
664.5186032686447
 20
-581.7747048612171
 30
0.0
 10
661.2111761780704
 20
-590.6274084481237
 30
0.0
 10
658.1013683197594
 20
-599.4871645463982
 30
0.0
 10
655.1924873647835
 20
-608.3446082851165
 30
0.0
 10
652.4876308155561
 20
-617.1903780579797
 30
0.0
 10
649.9896829022607
 20
-626.0151253194157
 30
0.0
 10
647.7013117189427
 20
-634.8095243292622
 30
0.0
 10
645.6249665993354
 20
-643.5642818280604
 30
0.0
 10
643.7628757308355
 20
-652.270146624251
 30
0.0
 10
642.1170440030446
 20
-660.9179190738258
 30
0.0
 10
640.689251084821
 20
-669.4984604324127
 30
0.0
 10
639.4810497208117
 20
-678.0027020593965
 30
0.0
 10
638.4937642348433
 20
-686.4216544537101
 30
0.0
 10
637.7284892233163
 20
-694.7464161015556
 30
0.0
 10
637.1860884168415
 20
-702.9681821177936
 30
0.0
 10
636.8671936827307
 20
-711.078252665575
 30
0.0
 10
636.7722041350644
 20
-719.0680411429435
 30
0.0
 10
636.9012853120362
 20
-726.9290821328628
 30
0.0
 10
637.2543683767473
 20
-734.6530391190031
 30
0.0
 10
637.8311488331799
 20
-742.2317060837763
 30
0.0
 10
638.6310848633553
 20
-749.6570172252563
 30
0.0
 10
639.6533958381762
 20
-756.9210568007832
 30
0.0
 10
640.8970622292579
 20
-764.0160715402442
 30
0.0
 10
642.3608234229026
 20
-770.9344769629826
 30
0.0
 10
644.0431792601775
 20
-777.6688586891704
 30
0.0
 10
645.9423754823758
 20
-784.211996290803
 30
0.0
 10
648.0564497797761
 20
-790.5568137254076
 30
0.0
 10
650.3830520614938
 20
-796.6966070036455
 30
0.0
 10
652.9201086397557
 20
-802.6242415494366
 30
0.0
 10
655.6633407018883
 20
-808.3351985195775
 30
0.0
 10
658.6155243082682
 20
-813.81626581072
 30
0.0
 10
661.6706540444558
 20
-818.9511482252602
 30
0.0
 10
663.8412763509267
 20
-822.1363943411641
 30
0.0
 10
664.8825176054625
 20
-823.6643477081973
 30
0.0
  0
LINE
  5
194
330
1F
100
AcDbEntity
  8
0
  6
Continuous
 62
     7
370
    25
100
AcDbLine
 10
1026.5059908688
 20
-356.2686444482
 30
0.0
 11
996.807506059
 21
-339.1240740999
 31
0.0
  0
LINE
  5
195
330
1F
100
AcDbEntity
  8
0
  6
Continuous
 62
     7
370
    25
100
AcDbLine
 10
698.8317237334
 20
-855.2891960788
 30
0.0
 11
728.5302085432
 21
-872.433766427
 31
0.0
  0
SPLINE
  5
196
330
1F
100
AcDbEntity
  8
0
  6
Continuous
 62
     7
370
    25
100
AcDbSpline
210
0.0
220
0.0
230
1.0
 70
     8
 71
     3
 72
    72
 73
    68
 74
     0
 42
0.00000001
 43
0.00000001
 40
0.0
 40
0.0
 40
0.0
 40
0.0
 40
0.01100856871949
 40
0.026589138548238
 40
0.0421743535807891
 40
0.0577639305307224
 40
0.0733574951839478
 40
0.08895461612068
 40
0.1045548343711109
 40
0.1201576877506491
 40
0.1357627294961072
 40
0.1513695414627063
 40
0.1669777425392576
 40
0.1825869931309242
 40
0.1981969965980396
 40
0.2138074984788702
 40
0.2294182842095925
 40
0.2450291676189596
 40
0.2606399704490661
 40
0.2762505859469561
 40
0.2918609315181643
 40
0.3074709452534288
 40
0.3230805827722754
 40
0.3386898144099967
 40
0.3542986227509319
 40
0.3699070004941991
 40
0.3855149486275772
 40
0.4011224748802391
 40
0.4167295924230798
 40
0.4323363187857182
 40
0.447942674960896
 40
0.4635486846694305
 40
0.4791543737615777
 40
0.4947597697335069
 40
0.5103649013402254
 40
0.5259697982888817
 40
0.5415744909985211
 40
0.557179010414433
 40
0.5727833878668586
 40
0.5883876549653194
 40
0.6039918435209889
 40
0.6195959854904485
 40
0.6352001129350352
 40
0.6508042557159217
 40
0.6664084375775673
 40
0.6820126907383941
 40
0.6976170474232696
 40
0.7132215398281457
 40
0.728826200072768
 40
0.7444310601350752
 40
0.7600361517610816
 40
0.7756415063430792
 40
0.7912471547579797
 40
0.8068531271562637
 40
0.8224594526904011
 40
0.838066159169783
 40
0.8536732726269344
 40
0.8692808167775739
 40
0.8848888123541394
 40
0.900497276289744
 40
0.916106220726542
 40
0.9317156518196974
 40
0.9473255683059084
 40
0.9629359598041447
 40
0.978546804816438
 40
0.9941580683997343
 40
1.0
 40
1.0
 40
1.0
 40
1.0
 10
773.4733382281463
 20
-886.0460619524638
 30
0.0
 10
774.8830067354075
 20
-886.1578028335625
 30
0.0
 10
778.2877973309639
 20
-886.4276920303091
 30
0.0
 10
783.8107852500981
 20
-886.5212317833797
 30
0.0
 10
790.016922975386
 20
-886.3749299675268
 30
0.0
 10
796.3200562370631
 20
-885.9292693369748
 30
0.0
 10
802.7084464893712
 20
-885.1979259035693
 30
0.0
 10
809.1765675929425
 20
-884.1780857717375
 30
0.0
 10
815.717109670801
 20
-882.8717703622597
 30
0.0
 10
822.3231403156806
 20
-881.2801172842318
 30
0.0
 10
828.9875416743275
 20
-879.4049084249775
 30
0.0
 10
835.7031760480222
 20
-877.2481540938555
 30
0.0
 10
842.462854576272
 20
-874.8121973823784
 30
0.0
 10
849.2593572112897
 20
-872.0996787254121
 30
0.0
 10
856.0854377132209
 20
-869.1135378682244
 30
0.0
 10
862.9338317098092
 20
-865.857005935614
 30
0.0
 10
869.7972620414075
 20
-862.3336009936748
 30
0.0
 10
876.6684415973945
 20
-858.547124735643
 30
0.0
 10
883.5400858344545
 20
-854.5016545768553
 30
0.0
 10
890.404920154022
 20
-850.2015374097499
 30
0.0
 10
897.2556896894596
 20
-845.6513814243009
 30
0.0
 10
904.0851592687361
 20
-840.8560545527739
 30
0.0
 10
910.8861198923673
 20
-835.8206793007375
 30
0.0
 10
917.6513953310883
 20
-830.550627444824
 30
0.0
 10
924.3738488349236
 20
-825.0515145619627
 30
0.0
 10
931.0463899395937
 20
-819.3291943620338
 30
0.0
 10
937.6619813518107
 20
-813.3897528035042
 30
0.0
 10
944.213645892814
 20
-807.2395019780545
 30
0.0
 10
950.6944734786845
 20
-800.8849737556823
 30
0.0
 10
957.0976281160787
 20
-794.3329131862708
 30
0.0
 10
963.4163548927501
 20
-787.59027165726
 30
0.0
 10
969.6439869432908
 20
-780.6641998099404
 30
0.0
 10
975.7739523717667
 20
-773.5620402191616
 30
0.0
 10
981.7997811142202
 20
-766.2913198430086
 30
0.0
 10
987.7151117252866
 20
-758.8597422503319
 30
0.0
 10
993.5136980743815
 20
-751.2751796350638
 30
0.0
 10
999.1894159380277
 20
-743.5456646270122
 30
0.0
 10
1004.736269475902
 20
-735.6793819094325
 30
0.0
 10
1010.148397579093
 20
-727.6846596541147
 30
0.0
 10
1015.420080079849
 20
-719.5699607850844
 30
0.0
 10
1020.545743812844
 20
-711.3438740822969
 30
0.0
 10
1025.519968518567
 20
-703.0151051369381
 30
0.0
 10
1030.337492346007
 20
-694.5924675793894
 30
0.0
 10
1034.99321684445
 20
-686.0848749166881
 30
0.0
 10
1039.482213321
 20
-677.5013296351602
 30
0.0
 10
1043.79972824211
 20
-668.850913226831
 30
0.0
 10
1047.941188698229
 20
-660.1427753885735
 30
0.0
 10
1051.902206351186
 20
-651.3861258741099
 30
0.0
 10
1055.678582010899
 20
-642.5902247506415
 30
0.0
 10
1059.266309996392
 20
-633.764372607008
 30
0.0
 10
1062.661582275419
 20
-624.9179007276309
 30
0.0
 10
1065.860792378064
 20
-616.0601612464452
 30
0.0
 10
1068.860539078816
 20
-607.2005172964026
 30
0.0
 10
1071.657629847472
 20
-598.3483331676399
 30
0.0
 10
1074.249084050809
 20
-589.5129644994767
 30
0.0
 10
1076.632135959691
 20
-580.7037484894989
 30
0.0
 10
1078.804237349735
 20
-571.9299942627861
 30
0.0
 10
1080.763060484538
 20
-563.2009729514263
 30
0.0
 10
1082.506498542287
 20
-554.5259092510413
 30
0.0
 10
1084.032674470167
 20
-545.9139679516469
 30
0.0
 10
1085.339917296137
 20
-537.3742598063933
 30
0.0
 10
1086.426858848175
 20
-528.915775904101
 30
0.0
 10
1087.292080092663
 20
-520.5475896551078
 30
0.0
 10
1087.935437476286
 20
-512.278060852143
 30
0.0
 10
1088.353118306662
 20
-504.1177651609963
 30
0.0
 10
1088.513757217819
 20
-497.7476241554401
 30
0.0
 10
1088.525591200083
 20
-494.1061992799886
 30
0.0
 10
1088.528813718424
 20
-493.1146008319312
 30
0.0
  0
SPLINE
  5
197
330
1F
100
AcDbEntity
  8
0
  6
Continuous
 62
     7
370
    25
100
AcDbSpline
210
0.0
220
0.0
230
1.0
 70
     8
 71
     3
 72
    24
 73
    20
 74
     0
 42
0.00000001
 43
0.00000001
 40
0.0
 40
0.0
 40
0.0
 40
0.0
 40
0.0328089474692661
 40
0.0951365655420944
 40
0.1574673194877643
 40
0.2197984376986134
 40
0.2821291446381159
 40
0.3444586747724647
 40
0.4067861077678998
 40
0.4691103559339813
 40
0.5314301560162247
 40
0.5937440678375099
 40
0.6560504828483559
 40
0.7183476460718234
 40
0.7806336950862479
 40
0.8429067193794656
 40
0.9051648424061242
 40
0.9674063267824281
 40
1.0
 40
1.0
 40
1.0
 40
1.0
 10
1088.528813718424
 20
-493.1146008319312
 30
0.0
 10
1088.522568525331
 20
-491.7259018859029
 30
0.0
 10
1088.504459251248
 20
-487.699072057826
 30
0.0
 10
1088.303263821729
 20
-481.1344736187035
 30
0.0
 10
1087.851810257573
 20
-473.4736784929111
 30
0.0
 10
1087.173827882365
 20
-465.9634313309958
 30
0.0
 10
1086.273826404431
 20
-458.6096672723382
 30
0.0
 10
1085.151661305856
 20
-451.4208090461794
 30
0.0
 10
1083.808736612456
 20
-444.4043793626
 30
0.0
 10
1082.246348310178
 20
-437.5679262809827
 30
0.0
 10
1080.466123578393
 20
-430.9187754148919
 30
0.0
 10
1078.469931100007
 20
-424.4640540874179
 30
0.0
 10
1076.259811012943
 20
-418.2107914827884
 30
0.0
 10
1073.838354323492
 20
-412.1654385561833
 30
0.0
 10
1071.207262897807
 20
-406.3356269916858
 30
0.0
 10
1068.372731492636
 20
-400.7235482257688
 30
0.0
 10
1065.325361495875
 20
-395.3505977411562
 30
0.0
 10
1062.62449918528
 20
-390.9881775543889
 30
0.0
 10
1060.864694641448
 20
-388.511485539735
 30
0.0
 10
1060.259871539091
 20
-387.6602770614205
 30
0.0
  0
SPLINE
  5
198
330
1F
100
AcDbEntity
  8
0
  6
Continuous
 62
     7
370
    25
100
AcDbSpline
210
0.0
220
0.0
230
1.0
 70
     8
 71
     3
 72
    22
 73
    18
 74
     0
 42
0.00000001
 43
0.00000001
 40
0.0
 40
0.0
 40
0.0
 40
0.0
 40
0.0539756670409801
 40
0.1242456253397227
 40
0.1944802872034916
 40
0.2646821582364735
 40
0.3348546865620871
 40
0.4050018343781678
 40
0.4751277245529417
 40
0.5452363755615058
 40
0.6153315218787733
 40
0.6854165076602664
 40
0.7554942378024064
 40
0.8255671704367498
 40
0.8956373369159302
 40
0.96570637816939
 40
1.0
 40
1.0
 40
1.0
 40
1.0
 10
977.5072540744966
 20
-430.8583383048435
 30
0.0
 10
978.2745310937867
 20
-431.8829416544637
 30
0.0
 10
980.0407123805898
 20
-434.2414578318014
 30
0.0
 10
982.5793769388488
 20
-438.2194630488913
 30
0.0
 10
985.1562632805209
 20
-442.7348696582291
 30
0.0
 10
987.5257739543443
 20
-447.4843237897001
 30
0.0
 10
989.692283798114
 20
-452.450933457476
 30
0.0
 10
991.650663691686
 20
-457.6301886938598
 30
0.0
 10
993.3986714804589
 20
-463.0139033536082
 30
0.0
 10
994.9336427269233
 20
-468.5945065417626
 30
0.0
 10
996.2533547420196
 20
-474.3639080066465
 30
0.0
 10
997.355909216344
 20
-480.3137451804428
 30
0.0
 10
998.2393823101397
 20
-486.4355459572094
 30
0.0
 10
998.9033912635599
 20
-492.7198672459369
 30
0.0
 10
999.3432283637902
 20
-499.1596319502613
 30
0.0
 10
999.5329020978367
 20
-504.6181819475266
 30
0.0
 10
999.5492934320778
 20
-507.9422640254861
 30
0.0
 10
999.5546796324788
 20
-509.0345590124741
 30
0.0
  0
SPLINE
  5
199
330
1F
100
AcDbEntity
  8
0
  6
Continuous
 62
     7
370
    25
100
AcDbSpline
210
0.0
220
0.0
230
1.0
 70
     8
 71
     3
 72
    64
 73
    60
 74
     0
 42
0.00000001
 43
0.00000001
 40
0.0
 40
0.0
 40
0.0
 40
0.0
 40
0.0094274192786376
 40
0.0273504905968339
 40
0.0452749215077708
 40
0.0631999387143571
 40
0.0811256467689923
 40
0.0990521116829659
 40
0.116979368304225
 40
0.134907426626942
 40
0.1528362770245058
 40
0.1707658945363584
 40
0.1886962423412394
 40
0.2066272745423283
 40
0.2245589383780271
 40
0.2424911759585004
 40
0.2604239256142897
 40
0.2783571229302547
 40
0.2962907015265592
 40
0.3142245936381931
 40
0.3321587305360496
 40
0.3500930428255427
 40
0.3680274606531114
 40
0.3859619138466578
 40
0.4038963203010249
 40
0.421830597732794
 40
0.4397646755643522
 40
0.4576984832702752
 40
0.4756319505189194
 40
0.4935650073830173
 40
0.511497584644257
 40
0.5294296142228515
 40
0.5473610297688463
 40
0.5652917674591722
 40
0.5832217670532799
 40
0.6011509732705471
 40
0.6190793375646926
 40
0.6370068203838491
 40
0.6549333940191973
 40
0.672859046159193
 40
0.6907837842787538
 40
0.7087076410002607
 40
0.7266306805616517
 40
0.7445530065095003
 40
0.7624747706923387
 40
0.7803961835485447
 40
0.798317493336433
 40
0.816238965337741
 40
0.8341610245187521
 40
0.8520841983710924
 40
0.8700091267719816
 40
0.8879365677222563
 40
0.9058673961021639
 40
0.9238025918634507
 40
0.941743213554324
 40
0.9596903530652287
 40
0.9776450684056386
 40
0.9956082936366079
 40
1.0
 40
1.0
 40
1.0
 40
1.0
 10
999.5546796324788
 20
-509.0345590124741
 30
0.0
 10
999.5484876122833
 20
-510.2154158309583
 30
0.0
 10
999.5305235454348
 20
-513.6412752687944
 30
0.0
 10
999.3308422916581
 20
-519.4085840042404
 30
0.0
 10
998.8826910781725
 20
-526.3661657888018
 30
0.0
 10
998.2098258537646
 20
-533.4301811756856
 30
0.0
 10
997.3169905350617
 20
-540.5878335230864
 30
0.0
 10
996.2043998012565
 20
-547.8292055124467
 30
0.0
 10
994.8738971869766
 20
-555.1434706882495
 30
0.0
 10
993.3273046561546
 20
-562.5198985601525
 30
0.0
 10
991.5668615919749
 20
-569.9476072234577
 30
0.0
 10
989.5951030687906
 20
-577.4156515052549
 30
0.0
 10
987.4148876300173
 20
-584.9130210848834
 30
0.0
 10
985.0293843191645
 20
-592.428662615316
 30
0.0
 10
982.4420699967098
 20
-599.9514952870773
 30
0.0
 10
979.6567233089958
 20
-607.4704280213952
 30
0.0
 10
976.6774189958708
 20
-614.9743760962119
 30
0.0
 10
973.5085215763976
 20
-622.4522777893269
 30
0.0
 10
970.1546786927294
 20
-629.8931108756608
 30
0.0
 10
966.6208140564314
 20
-637.2859090136068
 30
0.0
 10
962.9121200291668
 20
-644.6197780001813
 30
0.0
 10
959.0340498445228
 20
-651.8839118875735
 30
0.0
 10
954.9923094835067
 20
-659.067608948428
 30
0.0
 10
950.7928501277538
 20
-666.1602859339306
 30
0.0
 10
946.4418595576793
 20
-673.1514938145217
 30
0.0
 10
941.9457522205363
 20
-680.0309348847945
 30
0.0
 10
937.3111587278395
 20
-686.7884794801417
 30
0.0
 10
932.5449159579581
 20
-693.4141808696214
 30
0.0
 10
927.6540580047784
 20
-699.8982885055531
 30
0.0
 10
922.645805893976
 20
-706.2312625536371
 30
0.0
 10
917.5275570234859
 20
-712.4037881633428
 30
0.0
 10
912.3068743335751
 20
-718.4067894647002
 30
0.0
 10
906.9914752098225
 20
-724.2314432781469
 30
0.0
 10
901.5892201199288
 20
-729.8691925239577
 30
0.0
 10
896.1081009822873
 20
-735.3117593173098
 30
0.0
 10
890.5562292605955
 20
-740.5511577339189
 30
0.0
 10
884.9418237744846
 20
-745.579706229144
 30
0.0
 10
879.2731982111819
 20
-750.3900396901353
 30
0.0
 10
873.5587483177704
 20
-754.9751210954958
 30
0.0
 10
867.8069387479105
 20
-759.3282527495168
 30
0.0
 10
862.0262895315115
 20
-763.4430870475204
 30
0.0
 10
856.2253621314705
 20
-767.3136367148801
 30
0.0
 10
850.412745050191
 20
-770.9342844426009
 30
0.0
 10
844.597038949691
 20
-774.2997918220257
 30
0.0
 10
838.7868412646892
 20
-777.4053074388368
 30
0.0
 10
832.9907337598291
 20
-780.2463722998085
 30
0.0
 10
827.2172731133718
 20
-782.8189234142887
 30
0.0
 10
821.474966669428
 20
-785.1193041324607
 30
0.0
 10
815.7722525615623
 20
-787.1442675287874
 30
0.0
 10
810.1174739974396
 20
-788.8909835999164
 30
0.0
 10
804.5188771501164
 20
-790.3570175540034
 30
0.0
 10
798.9845671801254
 20
-791.5403914031922
 30
0.0
 10
793.5225977404297
 20
-792.4393355487945
 30
0.0
 10
788.1405707900333
 20
-793.0531863539665
 30
0.0
 10
782.8470778065985
 20
-793.3789953552892
 30
0.0
 10
777.6462837162376
 20
-793.4241437113978
 30
0.0
 10
772.5581390647409
 20
-793.1591909780735
 30
0.0
 10
768.8067815821023
 20
-792.8111720642744
 30
0.0
 10
766.7928797406512
 20
-792.4612014681912
 30
0.0
 10
766.3972415122354
 20
-792.3924484913668
 30
0.0
  0
SPLINE
  5
19A
330
1F
100
AcDbEntity
  8
0
  6
Continuous
 62
     7
370
    25
100
AcDbSpline
210
0.0
220
0.0
230
1.0
 70
     8
 71
     3
 72
    14
 73
    10
 74
     0
 42
0.00000001
 43
0.00000001
 40
0.0
 40
0.0
 40
0.0
 40
0.0
 40
0.0712798057068127
 40
0.2585323760757309
 40
0.4458670028011047
 40
0.6267438805899604
 40
0.8028728351980173
 40
0.9668889074464837
 40
1.0
 40
1.0
 40
1.0
 40
1.0
 10
989.483948059457
 20
-662.6230670329898
 30
0.0
 10
989.6192168030484
 20
-662.6744696168303
 30
0.0
 10
990.1098375243411
 20
-662.860907163972
 30
0.0
 10
990.7974665512814
 20
-663.4545192610967
 30
0.0
 10
991.5381562382466
 20
-664.4103044149333
 30
0.0
 10
992.0835262879194
 20
-665.6319932373924
 30
0.0
 10
992.4196083454203
 20
-667.0274504661357
 30
0.0
 10
992.5223561210341
 20
-668.158988472643
 30
0.0
 10
992.527182612288
 20
-668.7911976296381
 30
0.0
 10
992.5279933092753
 20
-668.8973886557784
 30
0.0
  0
SPLINE
  5
19B
330
1F
100
AcDbEntity
  8
0
  6
Continuous
 62
     7
370
    25
100
AcDbSpline
210
0.0
220
0.0
230
1.0
 70
     8
 71
     3
 72
    24
 73
    20
 74
     0
 42
0.00000001
 43
0.00000001
 40
0.0
 40
0.0
 40
0.0
 40
0.0
 40
0.0324229057529916
 40
0.0945611105948493
 40
0.1568567695300096
 40
0.2192876445379356
 40
0.2818328745102099
 40
0.3444502333831042
 40
0.4070900225668904
 40
0.469689644041926
 40
0.5321888883775145
 40
0.5945360077933626
 40
0.6566878195578132
 40
0.7186287747917107
 40
0.78041469482412
 40
0.8421982576919899
 40
0.9043533644143942
 40
0.9676651096299809
 40
1.0
 40
1.0
 40
1.0
 40
1.0
 10
992.5279933092753
 20
-668.8973886557784
 30
0.0
 10
992.5222261882485
 20
-669.1932189564382
 30
0.0
 10
992.5054064320738
 20
-670.0560053455144
 30
0.0
 10
992.3158838025224
 20
-671.5840297834616
 30
0.0
 10
991.8893851317615
 20
-673.4753969550912
 30
0.0
 10
991.2551136221238
 20
-675.408370121879
 30
0.0
 10
990.429168695368
 20
-677.3357896115249
 30
0.0
 10
989.4281873590068
 20
-679.2141697508712
 30
0.0
 10
988.274879306277
 20
-681.0001127565434
 30
0.0
 10
986.9959329963539
 20
-682.6527238953869
 30
0.0
 10
985.6218184097953
 20
-684.1344823138571
 30
0.0
 10
984.1859230646656
 20
-685.4125194609165
 30
0.0
 10
982.7239155868872
 20
-686.4595466948062
 30
0.0
 10
981.2724471977912
 20
-687.2555549863976
 30
0.0
 10
979.8689684812884
 20
-687.7870540815231
 30
0.0
 10
978.545202319957
 20
-688.0549729877557
 30
0.0
 10
977.3370132004636
 20
-688.0484443615031
 30
0.0
 10
976.4150181417439
 20
-687.8730648209544
 30
0.0
 10
975.9514111982561
 20
-687.6071705732255
 30
0.0
 10
975.7946813812515
 20
-687.517280727151
 30
0.0
  0
SPLINE
  5
19C
330
1F
100
AcDbEntity
  8
0
  6
Continuous
 62
     7
370
    25
100
AcDbSpline
210
0.0
220
0.0
230
1.0
 70
     8
 71
     3
 72
    77
 73
    73
 74
     0
 42
0.00000001
 43
0.00000001
 40
0.0
 40
0.0
 40
0.0
 40
0.0
 40
0.0095923880585373
 40
0.0241318070691391
 40
0.0386639259182922
 40
0.0531892648933686
 40
0.0677085385755531
 40
0.0822225672879663
 40
0.0967322041078834
 40
0.1112382801635966
 40
0.1257415675993126
 40
0.1402427576805185
 40
0.1547424507456801
 40
0.1692411547070357
 40
0.1837392892197266
 40
0.1982371932227172
 40
0.2127350789589284
 40
0.2272331448361667
 40
0.2417315607152968
 40
0.2562304499435567
 40
0.27072989745293
 40
0.285229956852517
 40
0.2997306565018596
 40
0.3142320046215817
 40
0.3287339935324196
 40
0.3432366031281447
 40
0.3577398036895863
 40
0.3722435581413117
 40
0.3867478238430961
 40
0.4012525539972048
 40
0.415757698741376
 40
0.4302632059869149
 40
0.444769022051788
 40
0.4592750921304804
 40
0.4737813606354641
 40
0.4882877714393862
 40
0.5027942680426083
 40
0.5173007936871103
 40
0.531807282107359
 40
0.5463136666026525
 40
0.5608198900853401
 40
0.5753258955092773
 40
0.5898316259840017
 40
0.604337024944568
 40
0.618842036397245
 40
0.6333466052661023
 40
0.6478506778701594
 40
0.6623542025666825
 40
0.6768571306032533
 40
0.6913594172297005
 40
0.7058610231306426
 40
0.7203619162502642
 40
0.734862074092501
 40
0.7493614865911598
 40
0.763860159654589
 40
0.7783581194955633
 40
0.7928554178558469
 40
0.8073521382209672
 40
0.8218484030864572
 40
0.8363443822715882
 40
0.8508402768227024
 40
0.8653363002478054
 40
0.8798327956879765
 40
0.8943301891442128
 40
0.9088289974711783
 40
0.9233298330520331
 40
0.9378334028455348
 40
0.9523404989126777
 40
0.9668519771057684
 40
0.9813687205915236
 40
0.9958915856185314
 40
1.0
 40
1.0
 40
1.0
 40
1.0
 10
747.4866613943991
 20
-780.23028688957
 30
0.0
 10
746.828579534228
 20
-779.3490372005244
 30
0.0
 10
745.1730267783931
 20
-777.1320556370164
 30
0.0
 10
742.7387824798511
 20
-773.3035466245911
 30
0.0
 10
740.1623085202623
 20
-768.7877932928735
 30
0.0
 10
737.7946495309811
 20
-764.036257675802
 30
0.0
 10
735.6296375001903
 20
-759.0680988244673
 30
0.0
 10
733.6728794032678
 20
-753.8872222094132
 30
0.0
 10
731.9264855453557
 20
-748.5019793523049
 30
0.0
 10
730.393157710127
 20
-742.9198970081088
 30
0.0
 10
729.0750883626565
 20
-737.149089975152
 30
0.0
 10
727.9742464288291
 20
-731.1978800001978
 30
0.0
 10
727.0922902457523
 20
-725.0748909349062
 30
0.0
 10
726.4305801730676
 20
-718.7890124456167
 30
0.0
 10
725.9901652107832
 20
-712.3493956444457
 30
0.0
 10
725.7717781280325
 20
-705.7654459142916
 30
0.0
 10
725.7758281286356
 20
-699.0468019598029
 30
0.0
 10
726.0023968252146
 20
-692.2033158438512
 30
0.0
 10
726.451236886857
 20
-685.2450273756976
 30
0.0
 10
727.121771282013
 20
-678.1821544583626
 30
0.0
 10
728.0130926031674
 20
-671.0250800299017
 30
0.0
 10
729.1239633958875
 20
-663.7843347040098
 30
0.0
 10
730.4528173786384
 20
-656.4705793757419
 30
0.0
 10
731.9977614561549
 20
-649.094587853814
 30
0.0
 10
733.7565784409978
 20
-641.6672295564271
 30
0.0
 10
735.7267304117419
 20
-634.1994522906523
 30
0.0
 10
737.9053626488356
 20
-626.7022651253512
 30
0.0
 10
740.289308100311
 20
-619.1867213619801
 30
0.0
 10
742.8750923388196
 20
-611.6639016051639
 30
0.0
 10
745.6589389790165
 20
-604.144896934469
 30
0.0
 10
748.6367755302105
 20
-596.6407921795902
 30
0.0
 10
751.8042396637309
 20
-589.1626493026322
 30
0.0
 10
755.1566858778127
 20
-581.7214908929197
 30
0.0
 10
758.689192545251
 20
-574.3282837815846
 30
0.0
 10
762.3965693307774
 20
-566.9939227848865
 30
0.0
 10
766.2733649663124
 20
-559.7292145866886
 30
0.0
 10
770.3138753729205
 20
-552.5448617719363
 30
0.0
 10
774.5121512193132
 20
-545.4514485437769
 30
0.0
 10
778.8620064949511
 20
-538.4594250300441
 30
0.0
 10
783.3570284512987
 20
-531.5790901522638
 30
0.0
 10
787.9905880858048
 20
-524.8205749289148
 30
0.0
 10
792.755850067909
 20
-518.1938275352804
 30
0.0
 10
797.6457817739337
 20
-511.7086000755157
 30
0.0
 10
802.6531635686758
 20
-505.3744340505968
 30
0.0
 10
807.7705993628504
 20
-499.2006460858932
 30
0.0
 10
812.9905274409626
 20
-493.1963139322298
 30
0.0
 10
818.305231556295
 20
-487.3702627537949
 30
0.0
 10
823.7068522920532
 20
-481.7310517163596
 30
0.0
 10
829.1873986907303
 20
-476.2869608897515
 30
0.0
 10
834.738760157364
 20
-471.0459784796384
 30
0.0
 10
840.3527186466852
 20
-466.015788405698
 30
0.0
 10
846.0209611490968
 20
-461.2037582465766
 30
0.0
 10
851.7350924958835
 20
-456.6169275770997
 30
0.0
 10
857.4866485097161
 20
-452.2619967306719
 30
0.0
 10
863.2671095320244
 20
-448.1453160300007
 30
0.0
 10
869.0679143627291
 20
-444.2728755443433
 30
0.0
 10
874.880474650988
 20
-440.6502954468801
 30
0.0
 10
880.6961897680808
 20
-437.2828170819675
 30
0.0
 10
886.5064622022348
 20
-434.1752948351285
 30
0.0
 10
892.3027100477121
 20
-431.3321907612568
 30
0.0
 10
898.0763764171501
 20
-428.7575706879487
 30
0.0
 10
903.8189531416116
 20
-426.4550953275672
 30
0.0
 10
909.5220028557153
 20
-424.4280112687121
 30
0.0
 10
915.177176284585
 20
-422.6791647374637
 30
0.0
 10
920.776246353702
 20
-421.2109447965309
 30
0.0
 10
926.3110324703016
 20
-420.0255148563492
 30
0.0
 10
931.7737578858491
 20
-419.1239668704617
 30
0.0
 10
937.1557817210024
 20
-418.5095086155294
 30
0.0
 10
942.452385960453
 20
-418.1756035983622
 30
0.0
 10
947.6449366043247
 20
-418.1503007924821
 30
0.0
 10
951.5422439886884
 20
-418.2875863124785
 30
0.0
 10
953.6685209191445
 20
-418.526458788515
 30
0.0
 10
954.1373897782577
 20
-418.5791329551338
 30
0.0
  0
SPLINE
  5
19D
330
1F
100
AcDbEntity
  8
0
  6
Continuous
 62
     7
370
    25
100
AcDbSpline
210
0.0
220
0.0
230
1.0
 70
     8
 71
     3
 72
    14
 73
    10
 74
     0
 42
0.00000001
 43
0.00000001
 40
0.0
 40
0.0
 40
0.0
 40
0.0
 40
0.0712798057068919
 40
0.258532376075842
 40
0.4458670028012523
 40
0.6267438805901289
 40
0.8028728351982158
 40
0.9668889074466909
 40
1.0
 40
1.0
 40
1.0
 40
1.0
 10
1030.846956095407
 20
-567.2601222414661
 30
0.0
 10
1030.982224838998
 20
-567.3115248253067
 30
0.0
 10
1031.472845560291
 20
-567.4979623724483
 30
0.0
 10
1032.160474587231
 20
-568.0915744695736
 30
0.0
 10
1032.901164274196
 20
-569.0473596234104
 30
0.0
 10
1033.446534323869
 20
-570.2690484458699
 30
0.0
 10
1033.78261638137
 20
-571.6645056746136
 30
0.0
 10
1033.885364156983
 20
-572.7960436811204
 30
0.0
 10
1033.890190648237
 20
-573.428252838115
 30
0.0
 10
1033.891001345225
 20
-573.5344438642544
 30
0.0
  0
SPLINE
  5
19E
330
1F
100
AcDbEntity
  8
0
  6
Continuous
 62
     7
370
    25
100
AcDbSpline
210
0.0
220
0.0
230
1.0
 70
     8
 71
     3
 72
    24
 73
    20
 74
     0
 42
0.00000001
 43
0.00000001
 40
0.0
 40
0.0
 40
0.0
 40
0.0
 40
0.0324229057529911
 40
0.0945611105948488
 40
0.1568567695300077
 40
0.2192876445379256
 40
0.281832874510223
 40
0.3444502333831209
 40
0.4070900225669057
 40
0.469689644041946
 40
0.5321888883775358
 40
0.5945360077933802
 40
0.6566878195578281
 40
0.7186287747917159
 40
0.780414694824134
 40
0.8421982576920087
 40
0.9043533644144172
 40
0.9676651096300048
 40
1.0
 40
1.0
 40
1.0
 40
1.0
 10
1033.891001345225
 20
-573.5344438642544
 30
0.0
 10
1033.885234224198
 20
-573.8302741649142
 30
0.0
 10
1033.868414468023
 20
-574.6930605539904
 30
0.0
 10
1033.678891838472
 20
-576.2210849919377
 30
0.0
 10
1033.252393167711
 20
-578.1124521635674
 30
0.0
 10
1032.618121658073
 20
-580.0454253303552
 30
0.0
 10
1031.792176731317
 20
-581.9728448200012
 30
0.0
 10
1030.791195394956
 20
-583.8512249593479
 30
0.0
 10
1029.637887342226
 20
-585.6371679650202
 30
0.0
 10
1028.358941032303
 20
-587.2897791038636
 30
0.0
 10
1026.984826445744
 20
-588.7715375223338
 30
0.0
 10
1025.548931100614
 20
-590.0495746693931
 30
0.0
 10
1024.086923622836
 20
-591.0966019032826
 30
0.0
 10
1022.63545523374
 20
-591.8926101948738
 30
0.0
 10
1021.231976517237
 20
-592.4241092899995
 30
0.0
 10
1019.908210355906
 20
-592.692028196232
 30
0.0
 10
1018.700021236412
 20
-592.6854995699791
 30
0.0
 10
1017.778026177692
 20
-592.5101200294303
 30
0.0
 10
1017.314419234205
 20
-592.2442257817014
 30
0.0
 10
1017.1576894172
 20
-592.154335935627
 30
0.0
  0
SPLINE
  5
19F
330
1F
100
AcDbEntity
  8
0
  6
Continuous
 62
     7
370
    25
100
AcDbSpline
210
0.0
220
0.0
230
1.0
 70
     8
 71
     3
 72
    14
 73
    10
 74
     0
 42
0.00000001
 43
0.00000001
 40
0.0
 40
0.0
 40
0.0
 40
0.0
 40
0.0712798057068395
 40
0.2585323760757655
 40
0.4458670028011645
 40
0.626743880590026
 40
0.8028728351980876
 40
0.9668889074465647
 40
1.0
 40
1.0
 40
1.0
 40
1.0
 10
927.5798318716785
 20
-746.124027623537
 30
0.0
 10
927.71510061527
 20
-746.1754302073775
 30
0.0
 10
928.2057213365626
 20
-746.3618677545193
 30
0.0
 10
928.893350363503
 20
-746.9554798516442
 30
0.0
 10
929.6340400504681
 20
-747.9112650054809
 30
0.0
 10
930.1794101001409
 20
-749.1329538279401
 30
0.0
 10
930.5154921576416
 20
-750.5284110566835
 30
0.0
 10
930.6182399332554
 20
-751.6599490631908
 30
0.0
 10
930.6230664245093
 20
-752.2921582201855
 30
0.0
 10
930.6238771214967
 20
-752.3983492463256
 30
0.0
  0
SPLINE
  5
1A0
330
1F
100
AcDbEntity
  8
0
  6
Continuous
 62
     7
370
    25
100
AcDbSpline
210
0.0
220
0.0
230
1.0
 70
     8
 71
     3
 72
    24
 73
    20
 74
     0
 42
0.00000001
 43
0.00000001
 40
0.0
 40
0.0
 40
0.0
 40
0.0
 40
0.032422905752992
 40
0.0945611105948321
 40
0.1568567695299909
 40
0.2192876445379099
 40
0.2818328745101948
 40
0.3444502333830878
 40
0.4070900225668744
 40
0.4696896440419191
 40
0.5321888883775043
 40
0.5945360077933529
 40
0.6566878195577939
 40
0.7186287747916983
 40
0.7804146948241137
 40
0.84219825769199
 40
0.9043533644143962
 40
0.9676651096299826
 40
1.0
 40
1.0
 40
1.0
 40
1.0
 10
930.6238771214967
 20
-752.3983492463256
 30
0.0
 10
930.6181100004696
 20
-752.6941795469852
 30
0.0
 10
930.601290244295
 20
-753.5569659360613
 30
0.0
 10
930.4117676147439
 20
-755.0849903740084
 30
0.0
 10
929.9852689439829
 20
-756.9763575456378
 30
0.0
 10
929.3509974343452
 20
-758.9093307124253
 30
0.0
 10
928.5250525075895
 20
-760.8367502020714
 30
0.0
 10
927.5240711712282
 20
-762.7151303414175
 30
0.0
 10
926.3707631184985
 20
-764.5010733470901
 30
0.0
 10
925.0918168085756
 20
-766.1536844859336
 30
0.0
 10
923.7177022220169
 20
-767.6354429044039
 30
0.0
 10
922.2818068768875
 20
-768.9134800514634
 30
0.0
 10
920.8197993991091
 20
-769.9605072853531
 30
0.0
 10
919.368331010013
 20
-770.7565155769444
 30
0.0
 10
917.96485229351
 20
-771.2880146720702
 30
0.0
 10
916.6410861321785
 20
-771.5559335783029
 30
0.0
 10
915.4328970126851
 20
-771.5494049520503
 30
0.0
 10
914.5109019539653
 20
-771.3740254115015
 30
0.0
 10
914.0472950104777
 20
-771.1081311637727
 30
0.0
 10
913.8905651934729
 20
-771.0182413176982
 30
0.0
  0
SPLINE
  5
1A1
330
1F
100
AcDbEntity
  8
0
  6
Continuous
 62
     7
370
    25
100
AcDbSpline
210
0.0
220
0.0
230
1.0
 70
     8
 71
     3
 72
    14
 73
    10
 74
     0
 42
0.00000001
 43
0.00000001
 40
0.0
 40
0.0
 40
0.0
 40
0.0
 40
0.0712798057068227
 40
0.2585323760757359
 40
0.4458670028011492
 40
0.6267438805899894
 40
0.8028728351980335
 40
0.9668889074464756
 40
1.0
 40
1.0
 40
1.0
 40
1.0
 10
1045.371712962654
 20
-474.5533371262273
 30
0.0
 10
1045.506981706245
 20
-474.6047397100678
 30
0.0
 10
1045.997602427538
 20
-474.7911772572094
 30
0.0
 10
1046.685231454479
 20
-475.3847893543343
 30
0.0
 10
1047.425921141444
 20
-476.340574508171
 30
0.0
 10
1047.971291191117
 20
-477.56226333063
 30
0.0
 10
1048.307373248617
 20
-478.9577205593734
 30
0.0
 10
1048.410121024231
 20
-480.0892585658805
 30
0.0
 10
1048.414947515485
 20
-480.7214677228757
 30
0.0
 10
1048.415758212472
 20
-480.827658749016
 30
0.0
  0
SPLINE
  5
1A2
330
1F
100
AcDbEntity
  8
0
  6
Continuous
 62
     7
370
    25
100
AcDbSpline
210
0.0
220
0.0
230
1.0
 70
     8
 71
     3
 72
    24
 73
    20
 74
     0
 42
0.00000001
 43
0.00000001
 40
0.0
 40
0.0
 40
0.0
 40
0.0
 40
0.0324229057529916
 40
0.094561110594851
 40
0.1568567695300117
 40
0.2192876445379311
 40
0.2818328745102296
 40
0.344450233383119
 40
0.407090022566894
 40
0.4696896440419265
 40
0.5321888883775193
 40
0.5945360077933682
 40
0.6566878195578147
 40
0.7186287747917048
 40
0.7804146948241243
 40
0.842198257692
 40
0.904353364414405
 40
0.9676651096299941
 40
1.0
 40
1.0
 40
1.0
 40
1.0
 10
1048.415758212472
 20
-480.827658749016
 30
0.0
 10
1048.409991091446
 20
-481.1234890496757
 30
0.0
 10
1048.393171335271
 20
-481.9862754387519
 30
0.0
 10
1048.20364870572
 20
-483.5142998766991
 30
0.0
 10
1047.777150034958
 20
-485.4056670483289
 30
0.0
 10
1047.142878525321
 20
-487.3386402151166
 30
0.0
 10
1046.316933598565
 20
-489.2660597047627
 30
0.0
 10
1045.315952262204
 20
-491.1444398441089
 30
0.0
 10
1044.162644209474
 20
-492.9303828497812
 30
0.0
 10
1042.883697899551
 20
-494.5829939886244
 30
0.0
 10
1041.509583312992
 20
-496.0647524070947
 30
0.0
 10
1040.073687967863
 20
-497.3427895541541
 30
0.0
 10
1038.611680490084
 20
-498.3898167880437
 30
0.0
 10
1037.160212100988
 20
-499.185825079635
 30
0.0
 10
1035.756733384486
 20
-499.7173241747607
 30
0.0
 10
1034.432967223154
 20
-499.9852430809934
 30
0.0
 10
1033.224778103661
 20
-499.9787144547407
 30
0.0
 10
1032.302783044941
 20
-499.803334914192
 30
0.0
 10
1031.839176101453
 20
-499.5374406664631
 30
0.0
 10
1031.682446284449
 20
-499.4475508203887
 30
0.0
  0
SPLINE
  5
1A3
330
1F
100
AcDbEntity
  8
0
  6
Continuous
 62
     7
370
    25
100
AcDbSpline
210
0.0
220
0.0
230
1.0
 70
     8
 71
     3
 72
    14
 73
    10
 74
     0
 42
0.00000001
 43
0.00000001
 40
0.0
 40
0.0
 40
0.0
 40
0.0
 40
0.0712798057068107
 40
0.2585323760757203
 40
0.4458670028011086
 40
0.6267438805899475
 40
0.8028728351980052
 40
0.966888907446469
 40
1.0
 40
1.0
 40
1.0
 40
1.0
 10
854.5589480594484
 20
-805.0507397012889
 30
0.0
 10
854.6942168030398
 20
-805.1021422851294
 30
0.0
 10
855.1848375243324
 20
-805.288579832271
 30
0.0
 10
855.872466551273
 20
-805.882191929396
 30
0.0
 10
856.613156238238
 20
-806.8379770832323
 30
0.0
 10
857.158526287911
 20
-808.0596659056914
 30
0.0
 10
857.494608345412
 20
-809.4551231344346
 30
0.0
 10
857.5973561210258
 20
-810.5866611409423
 30
0.0
 10
857.6021826122796
 20
-811.2188702979373
 30
0.0
 10
857.6029933092669
 20
-811.3250613240776
 30
0.0
  0
SPLINE
  5
1A4
330
1F
100
AcDbEntity
  8
0
  6
Continuous
 62
     7
370
    25
100
AcDbSpline
210
0.0
220
0.0
230
1.0
 70
     8
 71
     3
 72
    24
 73
    20
 74
     0
 42
0.00000001
 43
0.00000001
 40
0.0
 40
0.0
 40
0.0
 40
0.0
 40
0.0324229057529918
 40
0.0945611105948367
 40
0.156856769529995
 40
0.2192876445379197
 40
0.2818328745102038
 40
0.3444502333830928
 40
0.4070900225668859
 40
0.4696896440419347
 40
0.5321888883775242
 40
0.5945360077933655
 40
0.6566878195578215
 40
0.718628774791719
 40
0.7804146948241275
 40
0.8421982576919965
 40
0.904353364414395
 40
0.9676651096299874
 40
1.0
 40
1.0
 40
1.0
 40
1.0
 10
857.6029933092669
 20
-811.3250613240776
 30
0.0
 10
857.59722618824
 20
-811.6208916247374
 30
0.0
 10
857.5804064320654
 20
-812.4836780138135
 30
0.0
 10
857.3908838025142
 20
-814.0117024517606
 30
0.0
 10
856.9643851317533
 20
-815.9030696233901
 30
0.0
 10
856.3301136221155
 20
-817.8360427901779
 30
0.0
 10
855.5041686953598
 20
-819.7634622798238
 30
0.0
 10
854.5031873589985
 20
-821.6418424191701
 30
0.0
 10
853.3498793062686
 20
-823.4277854248427
 30
0.0
 10
852.0709329963455
 20
-825.0803965636861
 30
0.0
 10
850.6968184097868
 20
-826.5621549821564
 30
0.0
 10
849.2609230646573
 20
-827.840192129216
 30
0.0
 10
847.7989155868788
 20
-828.8872193631054
 30
0.0
 10
846.3474471977828
 20
-829.6832276546968
 30
0.0
 10
844.94396848128
 20
-830.2147267498225
 30
0.0
 10
843.6202023199486
 20
-830.482645656055
 30
0.0
 10
842.4120132004552
 20
-830.4761170298024
 30
0.0
 10
841.4900181417355
 20
-830.3007374892537
 30
0.0
 10
841.0264111982478
 20
-830.0348432415248
 30
0.0
 10
840.869681381243
 20
-829.9449533954504
 30
0.0
  0
SPLINE
  5
1A5
330
1F
100
AcDbEntity
  8
0
  6
Continuous
 62
     7
370
    25
100
AcDbSpline
210
0.0
220
0.0
230
1.0
 70
     8
 71
     3
 72
    14
 73
    10
 74
     0
 42
0.00000001
 43
0.00000001
 40
0.0
 40
0.0
 40
0.0
 40
0.0
 40
0.0712798057068686
 40
0.2585323760758268
 40
0.4458670028012001
 40
0.6267438805900758
 40
0.8028728351981583
 40
0.9668889074466123
 40
1.0
 40
1.0
 40
1.0
 40
1.0
 10
1030.846956095412
 20
-398.6164793319697
 30
0.0
 10
1030.982224839003
 20
-398.6678819158104
 30
0.0
 10
1031.472845560296
 20
-398.854319462952
 30
0.0
 10
1032.160474587236
 20
-399.4479315600772
 30
0.0
 10
1032.901164274201
 20
-400.403716713914
 30
0.0
 10
1033.446534323874
 20
-401.6254055363733
 30
0.0
 10
1033.782616381375
 20
-403.0208627651167
 30
0.0
 10
1033.885364156988
 20
-404.1524007716237
 30
0.0
 10
1033.890190648242
 20
-404.7846099286184
 30
0.0
 10
1033.891001345229
 20
-404.8908009547583
 30
0.0
  0
SPLINE
  5
1A6
330
1F
100
AcDbEntity
  8
0
  6
Continuous
 62
     7
370
    25
100
AcDbSpline
210
0.0
220
0.0
230
1.0
 70
     8
 71
     3
 72
    24
 73
    20
 74
     0
 42
0.00000001
 43
0.00000001
 40
0.0
 40
0.0
 40
0.0
 40
0.0
 40
0.0324229057529905
 40
0.0945611105948477
 40
0.1568567695300061
 40
0.2192876445379236
 40
0.2818328745102206
 40
0.3444502333831177
 40
0.4070900225669021
 40
0.4696896440419402
 40
0.5321888883775278
 40
0.5945360077933736
 40
0.6566878195578225
 40
0.7186287747917093
 40
0.780414694824126
 40
0.8421982576919984
 40
0.9043533644144025
 40
0.9676651096299878
 40
1.0
 40
1.0
 40
1.0
 40
1.0
 10
1033.891001345229
 20
-404.8908009547583
 30
0.0
 10
1033.885234224202
 20
-405.186631255418
 30
0.0
 10
1033.868414468028
 20
-406.0494176444943
 30
0.0
 10
1033.678891838477
 20
-407.5774420824415
 30
0.0
 10
1033.252393167716
 20
-409.468809254071
 30
0.0
 10
1032.618121658078
 20
-411.4017824208589
 30
0.0
 10
1031.792176731322
 20
-413.329201910505
 30
0.0
 10
1030.79119539496
 20
-415.2075820498515
 30
0.0
 10
1029.63788734223
 20
-416.993525055524
 30
0.0
 10
1028.358941032307
 20
-418.6461361943673
 30
0.0
 10
1026.984826445749
 20
-420.1278946128375
 30
0.0
 10
1025.548931100619
 20
-421.4059317598968
 30
0.0
 10
1024.086923622841
 20
-422.4529589937863
 30
0.0
 10
1022.635455233745
 20
-423.2489672853775
 30
0.0
 10
1021.231976517242
 20
-423.7804663805032
 30
0.0
 10
1019.90821035591
 20
-424.0483852867355
 30
0.0
 10
1018.700021236417
 20
-424.041856660483
 30
0.0
 10
1017.778026177698
 20
-423.866477119934
 30
0.0
 10
1017.31441923421
 20
-423.6005828722051
 30
0.0
 10
1017.157689417205
 20
-423.5106930261306
 30
0.0
  0
SPLINE
  5
1A7
330
1F
100
AcDbEntity
  8
0
  6
Continuous
 62
     7
370
    25
100
AcDbSpline
210
0.0
220
0.0
230
1.0
 70
     8
 71
     3
 72
    14
 73
    10
 74
     0
 42
0.00000001
 43
0.00000001
 40
0.0
 40
0.0
 40
0.0
 40
0.0
 40
0.0712798057068574
 40
0.2585323760757945
 40
0.4458670028011901
 40
0.6267438805900569
 40
0.802872835198122
 40
0.9668889074465938
 40
1.0
 40
1.0
 40
1.0
 40
1.0
 10
781.5380642472203
 20
-830.4321455243838
 30
0.0
 10
781.6733329908118
 20
-830.4835481082243
 30
0.0
 10
782.1639537121043
 20
-830.669985655366
 30
0.0
 10
782.8515827390448
 20
-831.263597752491
 30
0.0
 10
783.5922724260098
 20
-832.2193829063278
 30
0.0
 10
784.1376424756826
 20
-833.4410717287872
 30
0.0
 10
784.4737245331834
 20
-834.8365289575305
 30
0.0
 10
784.5764723087971
 20
-835.9680669640376
 30
0.0
 10
784.5812988000511
 20
-836.6002761210323
 30
0.0
 10
784.5821094970382
 20
-836.7064671471722
 30
0.0
  0
SPLINE
  5
1A8
330
1F
100
AcDbEntity
  8
0
  6
Continuous
 62
     7
370
    25
100
AcDbSpline
210
0.0
220
0.0
230
1.0
 70
     8
 71
     3
 72
    24
 73
    20
 74
     0
 42
0.00000001
 43
0.00000001
 40
0.0
 40
0.0
 40
0.0
 40
0.0
 40
0.0324229057529918
 40
0.0945611105948314
 40
0.1568567695299896
 40
0.2192876445379082
 40
0.2818328745101923
 40
0.3444502333830851
 40
0.4070900225668685
 40
0.4696896440419099
 40
0.5321888883775038
 40
0.5945360077933487
 40
0.656687819557797
 40
0.7186287747916871
 40
0.7804146948241103
 40
0.8421982576919945
 40
0.9043533644143976
 40
0.9676651096299822
 40
1.0
 40
1.0
 40
1.0
 40
1.0
 10
784.5821094970382
 20
-836.7064671471722
 30
0.0
 10
784.5763423760113
 20
-837.0022974478319
 30
0.0
 10
784.5595226198368
 20
-837.8650838369081
 30
0.0
 10
784.3699999902855
 20
-839.3931082748551
 30
0.0
 10
783.9435013195247
 20
-841.2844754464843
 30
0.0
 10
783.3092298098869
 20
-843.2174486132722
 30
0.0
 10
782.4832848831312
 20
-845.144868102918
 30
0.0
 10
781.4823035467699
 20
-847.0232482422643
 30
0.0
 10
780.3289954940402
 20
-848.8091912479367
 30
0.0
 10
779.0500491841173
 20
-850.4618023867803
 30
0.0
 10
777.6759345975586
 20
-851.9435608052506
 30
0.0
 10
776.2400392524291
 20
-853.22159795231
 30
0.0
 10
774.7780317746507
 20
-854.2686251861998
 30
0.0
 10
773.3265633855547
 20
-855.0646334777912
 30
0.0
 10
771.9230846690516
 20
-855.596132572917
 30
0.0
 10
770.59931850772
 20
-855.8640514791496
 30
0.0
 10
769.3911293882265
 20
-855.8575228528969
 30
0.0
 10
768.4691343295068
 20
-855.6821433123481
 30
0.0
 10
768.0055273860191
 20
-855.4162490646194
 30
0.0
 10
767.8487975690144
 20
-855.3263592185448
 30
0.0
  0
SPLINE
  5
1A9
330
1F
100
AcDbEntity
  8
0
  6
Continuous
 62
     7
370
    25
100
AcDbSpline
210
0.0
220
0.0
230
1.0
 70
     8
 71
     3
 72
    14
 73
    10
 74
     0
 42
0.00000001
 43
0.00000001
 40
0.0
 40
0.0
 40
0.0
 40
0.0
 40
0.0712798057068331
 40
0.2585323760757626
 40
0.4458670028011602
 40
0.6267438805899993
 40
0.8028728351980751
 40
0.9668889074465495
 40
1.0
 40
1.0
 40
1.0
 40
1.0
 10
989.483948059466
 20
-351.0102470885383
 30
0.0
 10
989.6192168030575
 20
-351.0616496723788
 30
0.0
 10
990.1098375243502
 20
-351.2480872195205
 30
0.0
 10
990.7974665512907
 20
-351.8416993166455
 30
0.0
 10
991.5381562382559
 20
-352.7974844704821
 30
0.0
 10
992.0835262879286
 20
-354.0191732929413
 30
0.0
 10
992.4196083454293
 20
-355.4146305216848
 30
0.0
 10
992.522356121043
 20
-356.5461685281919
 30
0.0
 10
992.527182612297
 20
-357.1783776851868
 30
0.0
 10
992.5279933092843
 20
-357.2845687113269
 30
0.0
  0
SPLINE
  5
1AA
330
1F
100
AcDbEntity
  8
0
  6
Continuous
 62
     7
370
    25
100
AcDbSpline
210
0.0
220
0.0
230
1.0
 70
     8
 71
     3
 72
    24
 73
    20
 74
     0
 42
0.00000001
 43
0.00000001
 40
0.0
 40
0.0
 40
0.0
 40
0.0
 40
0.0324229057529919
 40
0.09456111059485
 40
0.1568567695300111
 40
0.2192876445379307
 40
0.2818328745102161
 40
0.3444502333831114
 40
0.4070900225669012
 40
0.4696896440419375
 40
0.5321888883775293
 40
0.5945360077933775
 40
0.6566878195578253
 40
0.7186287747917144
 40
0.7804146948241257
 40
0.8421982576919971
 40
0.9043533644144031
 40
0.9676651096299899
 40
1.0
 40
1.0
 40
1.0
 40
1.0
 10
992.5279933092843
 20
-357.2845687113269
 30
0.0
 10
992.5222261882575
 20
-357.5803990119866
 30
0.0
 10
992.5054064320829
 20
-358.4431854010629
 30
0.0
 10
992.3158838025314
 20
-359.97120983901
 30
0.0
 10
991.8893851317705
 20
-361.8625770106399
 30
0.0
 10
991.2551136221329
 20
-363.7955501774275
 30
0.0
 10
990.429168695377
 20
-365.7229696670734
 30
0.0
 10
989.4281873590156
 20
-367.6013498064197
 30
0.0
 10
988.2748793062858
 20
-369.3872928120923
 30
0.0
 10
986.9959329963626
 20
-371.0399039509356
 30
0.0
 10
985.6218184098041
 20
-372.5216623694058
 30
0.0
 10
984.1859230646745
 20
-373.7996995164652
 30
0.0
 10
982.723915586896
 20
-374.8467267503548
 30
0.0
 10
981.2724471978003
 20
-375.642735041946
 30
0.0
 10
979.8689684812973
 20
-376.1742341370717
 30
0.0
 10
978.545202319966
 20
-376.4421530433042
 30
0.0
 10
977.3370132004726
 20
-376.4356244170517
 30
0.0
 10
976.415018141753
 20
-376.2602448765028
 30
0.0
 10
975.9514111982652
 20
-375.9943506287739
 30
0.0
 10
975.7946813812606
 20
-375.9044607826995
 30
0.0
  0
SPLINE
  5
1AB
330
1F
100
AcDbEntity
  8
0
  6
Continuous
 62
     7
370
    25
100
AcDbSpline
210
0.0
220
0.0
230
1.0
 70
     8
 71
     3
 72
    14
 73
    10
 74
     0
 42
0.00000001
 43
0.00000001
 40
0.0
 40
0.0
 40
0.0
 40
0.0
 40
0.0712798057068447
 40
0.2585323760757727
 40
0.4458670028011661
 40
0.6267438805900233
 40
0.8028728351981002
 40
0.9668889074465785
 40
1.0
 40
1.0
 40
1.0
 40
1.0
 10
719.6339480594442
 20
-818.4041561392713
 30
0.0
 10
719.7692168030356
 20
-818.4555587231118
 30
0.0
 10
720.2598375243282
 20
-818.6419962702535
 30
0.0
 10
720.9474665512687
 20
-819.2356083673785
 30
0.0
 10
721.6881562382337
 20
-820.1913935212153
 30
0.0
 10
722.2335262879064
 20
-821.4130823436743
 30
0.0
 10
722.5696083454072
 20
-822.8085395724179
 30
0.0
 10
722.672356121021
 20
-823.940077578925
 30
0.0
 10
722.677182612275
 20
-824.5722867359198
 30
0.0
 10
722.6779933092622
 20
-824.6784777620599
 30
0.0
  0
SPLINE
  5
1AC
330
1F
100
AcDbEntity
  8
0
  6
Continuous
 62
     7
370
    25
100
AcDbSpline
210
0.0
220
0.0
230
1.0
 70
     8
 71
     3
 72
    24
 73
    20
 74
     0
 42
0.00000001
 43
0.00000001
 40
0.0
 40
0.0
 40
0.0
 40
0.0
 40
0.0324229057529918
 40
0.09456111059485
 40
0.156856769530011
 40
0.2192876445379306
 40
0.2818328745102159
 40
0.3444502333831112
 40
0.407090022566901
 40
0.4696896440419372
 40
0.532188888377529
 40
0.594536007793377
 40
0.6566878195578248
 40
0.7186287747917139
 40
0.7804146948241253
 40
0.8421982576919965
 40
0.9043533644144025
 40
0.9676651096299893
 40
1.0
 40
1.0
 40
1.0
 40
1.0
 10
722.6779933092622
 20
-824.6784777620599
 30
0.0
 10
722.6722261882353
 20
-824.9743080627194
 30
0.0
 10
722.6554064320608
 20
-825.8370944517959
 30
0.0
 10
722.4658838025093
 20
-827.365118889743
 30
0.0
 10
722.0393851317485
 20
-829.2564860613725
 30
0.0
 10
721.4051136221105
 20
-831.1894592281606
 30
0.0
 10
720.5791686953548
 20
-833.1168787178062
 30
0.0
 10
719.5781873589934
 20
-834.9952588571527
 30
0.0
 10
718.4248793062637
 20
-836.7812018628251
 30
0.0
 10
717.1459329963405
 20
-838.4338130016686
 30
0.0
 10
715.7718184097821
 20
-839.9155714201386
 30
0.0
 10
714.3359230646524
 20
-841.193608567198
 30
0.0
 10
712.873915586874
 20
-842.2406358010877
 30
0.0
 10
711.4224471977782
 20
-843.0366440926789
 30
0.0
 10
710.0189684812754
 20
-843.5681431878046
 30
0.0
 10
708.695202319944
 20
-843.8360620940371
 30
0.0
 10
707.4870132004504
 20
-843.8295334677846
 30
0.0
 10
706.5650181417309
 20
-843.6541539272357
 30
0.0
 10
706.1014111982432
 20
-843.3882596795069
 30
0.0
 10
705.9446813812384
 20
-843.2983698334324
 30
0.0
  0
SPLINE
  5
1AD
330
1F
100
AcDbEntity
  8
0
  6
Continuous
 62
     7
370
    25
100
AcDbSpline
210
0.0
220
0.0
230
1.0
 70
     8
 71
     3
 72
    14
 73
    10
 74
     0
 42
0.00000001
 43
0.00000001
 40
0.0
 40
0.0
 40
0.0
 40
0.0
 40
0.0712798057068002
 40
0.2585323760757069
 40
0.4458670028010929
 40
0.626743880589935
 40
0.8028728351979951
 40
0.9668889074464617
 40
1.0
 40
1.0
 40
1.0
 40
1.0
 10
927.5798318716899
 20
-338.9822577034258
 30
0.0
 10
927.7151006152812
 20
-339.0336602872662
 30
0.0
 10
928.2057213365739
 20
-339.2200978344077
 30
0.0
 10
928.8933503635143
 20
-339.8137099315327
 30
0.0
 10
929.6340400504795
 20
-340.7694950853692
 30
0.0
 10
930.1794101001524
 20
-341.9911839078283
 30
0.0
 10
930.5154921576532
 20
-343.3866411365715
 30
0.0
 10
930.6182399332671
 20
-344.518179143079
 30
0.0
 10
930.6230664245211
 20
-345.150388300074
 30
0.0
 10
930.6238771215083
 20
-345.2565793262145
 30
0.0
  0
SPLINE
  5
1AE
330
1F
100
AcDbEntity
  8
0
  6
Continuous
 62
     7
370
    25
100
AcDbSpline
210
0.0
220
0.0
230
1.0
 70
     8
 71
     3
 72
    24
 73
    20
 74
     0
 42
0.00000001
 43
0.00000001
 40
0.0
 40
0.0
 40
0.0
 40
0.0
 40
0.0324229057529923
 40
0.0945611105948321
 40
0.1568567695299894
 40
0.2192876445379154
 40
0.281832874510202
 40
0.344450233383094
 40
0.4070900225668813
 40
0.4696896440419171
 40
0.5321888883775119
 40
0.5945360077933587
 40
0.6566878195578031
 40
0.7186287747917002
 40
0.7804146948241193
 40
0.8421982576919993
 40
0.9043533644144034
 40
0.96766510962999
 40
1.0
 40
1.0
 40
1.0
 40
1.0
 10
930.6238771215083
 20
-345.2565793262145
 30
0.0
 10
930.6181100004815
 20
-345.5524096268741
 30
0.0
 10
930.6012902443067
 20
-346.4151960159502
 30
0.0
 10
930.4117676147555
 20
-347.9432204538972
 30
0.0
 10
929.9852689439947
 20
-349.8345876255267
 30
0.0
 10
929.3509974343569
 20
-351.7675607923145
 30
0.0
 10
928.5250525076013
 20
-353.6949802819603
 30
0.0
 10
927.5240711712399
 20
-355.5733604213067
 30
0.0
 10
926.3707631185102
 20
-357.3593034269791
 30
0.0
 10
925.0918168085873
 20
-359.0119145658225
 30
0.0
 10
923.7177022220286
 20
-360.4936729842928
 30
0.0
 10
922.2818068768992
 20
-361.7717101313522
 30
0.0
 10
920.8197993991207
 20
-362.8187373652419
 30
0.0
 10
919.3683310100247
 20
-363.6147456568334
 30
0.0
 10
917.9648522935217
 20
-364.146244751959
 30
0.0
 10
916.6410861321903
 20
-364.4141636581919
 30
0.0
 10
915.4328970126967
 20
-364.4076350319392
 30
0.0
 10
914.510901953977
 20
-364.2322554913906
 30
0.0
 10
914.0472950104894
 20
-363.9663612436617
 30
0.0
 10
913.8905651934847
 20
-363.8764713975873
 30
0.0
  0
SPLINE
  5
1AF
330
1F
100
AcDbEntity
  8
0
  6
Continuous
 62
     7
370
    25
100
AcDbSpline
210
0.0
220
0.0
230
1.0
 70
     8
 71
     3
 72
    14
 73
    10
 74
     0
 42
0.00000001
 43
0.00000001
 40
0.0
 40
0.0
 40
0.0
 40
0.0
 40
0.0712798057068353
 40
0.2585323760757574
 40
0.4458670028011592
 40
0.626743880590007
 40
0.8028728351980757
 40
0.9668889074465608
 40
1.0
 40
1.0
 40
1.0
 40
1.0
 10
678.270940023499
 20
-770.79792389584
 30
0.0
 10
678.4062087670904
 20
-770.8493264796805
 30
0.0
 10
678.896829488383
 20
-771.0357640268222
 30
0.0
 10
679.5844585153237
 20
-771.629376123947
 30
0.0
 10
680.3251482022885
 20
-772.5851612777839
 30
0.0
 10
680.8705182519616
 20
-773.8068501002429
 30
0.0
 10
681.2066003094624
 20
-775.2023073289864
 30
0.0
 10
681.3093480850761
 20
-776.3338453354935
 30
0.0
 10
681.3141745763301
 20
-776.9660544924885
 30
0.0
 10
681.3149852733172
 20
-777.0722455186285
 30
0.0
  0
SPLINE
  5
1B0
330
1F
100
AcDbEntity
  8
0
  6
Continuous
 62
     7
370
    25
100
AcDbSpline
210
0.0
220
0.0
230
1.0
 70
     8
 71
     3
 72
    24
 73
    20
 74
     0
 42
0.00000001
 43
0.00000001
 40
0.0
 40
0.0
 40
0.0
 40
0.0
 40
0.0324229057529914
 40
0.0945611105948502
 40
0.1568567695300101
 40
0.2192876445379353
 40
0.2818328745102155
 40
0.3444502333831098
 40
0.407090022566898
 40
0.4696896440419394
 40
0.5321888883775281
 40
0.5945360077933786
 40
0.6566878195578261
 40
0.7186287747917185
 40
0.7804146948241332
 40
0.8421982576920075
 40
0.9043533644144114
 40
0.9676651096299982
 40
1.0
 40
1.0
 40
1.0
 40
1.0
 10
681.3149852733172
 20
-777.0722455186285
 30
0.0
 10
681.3092181522904
 20
-777.3680758192883
 30
0.0
 10
681.2923983961157
 20
-778.2308622083646
 30
0.0
 10
681.1028757665645
 20
-779.7588866463117
 30
0.0
 10
680.6763770958033
 20
-781.6502538179415
 30
0.0
 10
680.0421055861656
 20
-783.5832269847292
 30
0.0
 10
679.21616065941
 20
-785.5106464743751
 30
0.0
 10
678.2151793230485
 20
-787.3890266137214
 30
0.0
 10
677.0618712703186
 20
-789.1749696193937
 30
0.0
 10
675.7829249603956
 20
-790.8275807582373
 30
0.0
 10
674.4088103738369
 20
-792.3093391767075
 30
0.0
 10
672.9729150287073
 20
-793.5873763237669
 30
0.0
 10
671.5109075509289
 20
-794.6344035576565
 30
0.0
 10
670.0594391618329
 20
-795.4304118492478
 30
0.0
 10
668.6559604453302
 20
-795.9619109443732
 30
0.0
 10
667.3321942839987
 20
-796.2298298506058
 30
0.0
 10
666.1240051645052
 20
-796.2233012243532
 30
0.0
 10
665.2020101057856
 20
-796.0479216838045
 30
0.0
 10
664.7384031622981
 20
-795.7820274360755
 30
0.0
 10
664.5816733452934
 20
-795.6921375900012
 30
0.0
  0
SPLINE
  5
1B1
330
1F
100
AcDbEntity
  8
0
  6
Continuous
 62
     7
370
    25
100
AcDbSpline
210
0.0
220
0.0
230
1.0
 70
     8
 71
     3
 72
    14
 73
    10
 74
     0
 42
0.00000001
 43
0.00000001
 40
0.0
 40
0.0
 40
0.0
 40
0.0
 40
0.0712798057067996
 40
0.2585323760756945
 40
0.4458670028010709
 40
0.6267438805899028
 40
0.8028728351979717
 40
0.9668889074464323
 40
0.9999999999999999
 40
0.9999999999999999
 40
0.9999999999999999
 40
0.9999999999999999
 10
854.5589480594612
 20
-364.3636635265203
 30
0.0
 10
854.6942168030525
 20
-364.4150661103607
 30
0.0
 10
855.1848375243451
 20
-364.6015036575023
 30
0.0
 10
855.8724665512856
 20
-365.1951157546272
 30
0.0
 10
856.6131562382508
 20
-366.1509009084636
 30
0.0
 10
857.1585262879236
 20
-367.3725897309225
 30
0.0
 10
857.4946083454246
 20
-368.7680469596658
 30
0.0
 10
857.5973561210384
 20
-369.8995849661732
 30
0.0
 10
857.6021826122924
 20
-370.5317941231686
 30
0.0
 10
857.6029933092797
 20
-370.637985149309
 30
0.0
  0
SPLINE
  5
1B2
330
1F
100
AcDbEntity
  8
0
  6
Continuous
 62
     7
370
    25
100
AcDbSpline
210
0.0
220
0.0
230
1.0
 70
     8
 71
     3
 72
    24
 73
    20
 74
     0
 42
0.00000001
 43
0.00000001
 40
0.0
 40
0.0
 40
0.0
 40
0.0
 40
0.0324229057529926
 40
0.094561110594839
 40
0.1568567695299989
 40
0.2192876445379252
 40
0.2818328745102106
 40
0.3444502333831016
 40
0.4070900225668881
 40
0.4696896440419329
 40
0.5321888883775195
 40
0.5945360077933685
 40
0.6566878195578216
 40
0.7186287747917053
 40
0.7804146948241223
 40
0.8421982576919885
 40
0.9043533644143971
 40
0.9676651096299873
 40
1.0
 40
1.0
 40
1.0
 40
1.0
 10
857.6029933092797
 20
-370.637985149309
 30
0.0
 10
857.5972261882528
 20
-370.9338154499687
 30
0.0
 10
857.5804064320781
 20
-371.7966018390449
 30
0.0
 10
857.3908838025269
 20
-373.3246262769919
 30
0.0
 10
856.964385131766
 20
-375.2159934486214
 30
0.0
 10
856.3301136221282
 20
-377.1489666154092
 30
0.0
 10
855.5041686953726
 20
-379.0763861050551
 30
0.0
 10
854.5031873590113
 20
-380.9547662444014
 30
0.0
 10
853.3498793062814
 20
-382.7407092500737
 30
0.0
 10
852.0709329963585
 20
-384.3933203889172
 30
0.0
 10
850.6968184097999
 20
-385.8750788073874
 30
0.0
 10
849.2609230646704
 20
-387.1531159544469
 30
0.0
 10
847.798915586892
 20
-388.2001431883365
 30
0.0
 10
846.3474471977961
 20
-388.9961514799279
 30
0.0
 10
844.9439684812933
 20
-389.5276505750535
 30
0.0
 10
843.6202023199619
 20
-389.7955694812862
 30
0.0
 10
842.4120132004684
 20
-389.7890408550338
 30
0.0
 10
841.4900181417486
 20
-389.6136613144851
 30
0.0
 10
841.0264111982609
 20
-389.3477670667563
 30
0.0
 10
840.8696813812562
 20
-389.2578772206818
 30
0.0
  0
SPLINE
  5
1B3
330
1F
100
AcDbEntity
  8
0
  6
Continuous
 62
     7
370
    25
100
AcDbSpline
210
0.0
220
0.0
230
1.0
 70
     8
 71
     3
 72
    14
 73
    10
 74
     0
 42
0.00000001
 43
0.00000001
 40
0.0
 40
0.0
 40
0.0
 40
0.0
 40
0.0712798057068803
 40
0.2585323760758149
 40
0.445867002801212
 40
0.6267438805900808
 40
0.802872835198124
 40
0.9668889074466055
 40
1.0
 40
1.0
 40
1.0
 40
1.0
 10
663.7461831562562
 20
-694.8610661015824
 30
0.0
 10
663.8814518998477
 20
-694.9124686854229
 30
0.0
 10
664.3720726211403
 20
-695.0989062325647
 30
0.0
 10
665.0597016480808
 20
-695.6925183296897
 30
0.0
 10
665.8003913350459
 20
-696.6483034835264
 30
0.0
 10
666.3457613847186
 20
-697.8699923059856
 30
0.0
 10
666.6818434422192
 20
-699.2654495347291
 30
0.0
 10
666.7845912178329
 20
-700.3969875412362
 30
0.0
 10
666.7894177090868
 20
-701.029196698231
 30
0.0
 10
666.7902284060741
 20
-701.1353877243707
 30
0.0
  0
SPLINE
  5
1B4
330
1F
100
AcDbEntity
  8
0
  6
Continuous
 62
     7
370
    25
100
AcDbSpline
210
0.0
220
0.0
230
1.0
 70
     8
 71
     3
 72
    24
 73
    20
 74
     0
 42
0.00000001
 43
0.00000001
 40
0.0
 40
0.0
 40
0.0
 40
0.0
 40
0.0324229057529912
 40
0.0945611105948499
 40
0.1568567695300103
 40
0.2192876445379293
 40
0.2818328745102274
 40
0.3444502333831163
 40
0.4070900225669018
 40
0.4696896440419406
 40
0.5321888883775286
 40
0.5945360077933763
 40
0.6566878195578254
 40
0.7186287747917168
 40
0.7804146948241314
 40
0.8421982576920055
 40
0.9043533644144132
 40
0.9676651096299962
 40
1.0
 40
1.0
 40
1.0
 40
1.0
 10
666.7902284060741
 20
-701.1353877243707
 30
0.0
 10
666.7844612850473
 20
-701.4312180250304
 30
0.0
 10
666.7676415288726
 20
-702.2940044141068
 30
0.0
 10
666.5781188993212
 20
-703.8220288520539
 30
0.0
 10
666.1516202285603
 20
-705.7133960236836
 30
0.0
 10
665.5173487189224
 20
-707.6463691904715
 30
0.0
 10
664.6914037921669
 20
-709.5737886801173
 30
0.0
 10
663.6904224558053
 20
-711.4521688194639
 30
0.0
 10
662.5371144030755
 20
-713.2381118251361
 30
0.0
 10
661.2581680931526
 20
-714.8907229639794
 30
0.0
 10
659.8840535065939
 20
-716.3724813824497
 30
0.0
 10
658.4481581614644
 20
-717.650518529509
 30
0.0
 10
656.9861506836858
 20
-718.6975457633986
 30
0.0
 10
655.5346822945899
 20
-719.4935540549899
 30
0.0
 10
654.131203578087
 20
-720.0250531501156
 30
0.0
 10
652.8074374167555
 20
-720.2929720563482
 30
0.0
 10
651.5992482972621
 20
-720.2864434300953
 30
0.0
 10
650.6772532385426
 20
-720.1110638895466
 30
0.0
 10
650.213646295055
 20
-719.8451696418177
 30
0.0
 10
650.0569164780503
 20
-719.7552797957433
 30
0.0
  0
SPLINE
  5
1B5
330
1F
100
AcDbEntity
  8
0
  6
Continuous
 62
     7
370
    25
100
AcDbSpline
210
0.0
220
0.0
230
1.0
 70
     8
 71
     3
 72
    14
 73
    10
 74
     0
 42
0.00000001
 43
0.00000001
 40
0.0
 40
0.0
 40
0.0
 40
0.0
 40
0.0712798057067931
 40
0.258532376075683
 40
0.4458670028010533
 40
0.6267438805899126
 40
0.802872835197978
 40
0.9668889074464471
 40
1.0
 40
1.0
 40
1.0
 40
1.0
 10
781.5380642472315
 20
-423.2903756042726
 30
0.0
 10
781.6733329908229
 20
-423.3417781881131
 30
0.0
 10
782.1639537121155
 20
-423.5282157352547
 30
0.0
 10
782.8515827390559
 20
-424.1218278323794
 30
0.0
 10
783.5922724260209
 20
-425.077612986216
 30
0.0
 10
784.1376424756938
 20
-426.2993018086748
 30
0.0
 10
784.4737245331949
 20
-427.6947590374183
 30
0.0
 10
784.5764723088087
 20
-428.8262970439255
 30
0.0
 10
784.5812988000627
 20
-429.4585062009209
 30
0.0
 10
784.5821094970498
 20
-429.5646972270612
 30
0.0
  0
SPLINE
  5
1B6
330
1F
100
AcDbEntity
  8
0
  6
Continuous
 62
     7
370
    25
100
AcDbSpline
210
0.0
220
0.0
230
1.0
 70
     8
 71
     3
 72
    24
 73
    20
 74
     0
 42
0.00000001
 43
0.00000001
 40
0.0
 40
0.0
 40
0.0
 40
0.0
 40
0.032422905752992
 40
0.0945611105948304
 40
0.1568567695299906
 40
0.2192876445379127
 40
0.2818328745101966
 40
0.3444502333830926
 40
0.40709002256688
 40
0.469689644041916
 40
0.5321888883775108
 40
0.5945360077933625
 40
0.6566878195578082
 40
0.718628774791695
 40
0.7804146948241144
 40
0.8421982576919838
 40
0.904353364414394
 40
0.96766510962998
 40
1.0
 40
1.0
 40
1.0
 40
1.0
 10
784.5821094970498
 20
-429.5646972270612
 30
0.0
 10
784.576342376023
 20
-429.8605275277209
 30
0.0
 10
784.5595226198483
 20
-430.7233139167971
 30
0.0
 10
784.3699999902971
 20
-432.2513383547441
 30
0.0
 10
783.9435013195363
 20
-434.1427055263734
 30
0.0
 10
783.3092298098985
 20
-436.0756786931612
 30
0.0
 10
782.4832848831428
 20
-438.003098182807
 30
0.0
 10
781.4823035467816
 20
-439.8814783221536
 30
0.0
 10
780.3289954940518
 20
-441.6674213278259
 30
0.0
 10
779.0500491841287
 20
-443.3200324666693
 30
0.0
 10
777.6759345975701
 20
-444.8017908851397
 30
0.0
 10
776.2400392524404
 20
-446.0798280321991
 30
0.0
 10
774.778031774662
 20
-447.1268552660888
 30
0.0
 10
773.3265633855661
 20
-447.9228635576802
 30
0.0
 10
771.9230846690633
 20
-448.4543626528059
 30
0.0
 10
770.5993185077319
 20
-448.7222815590385
 30
0.0
 10
769.3911293882383
 20
-448.715752932786
 30
0.0
 10
768.4691343295186
 20
-448.5403733922372
 30
0.0
 10
768.0055273860308
 20
-448.2744791445083
 30
0.0
 10
767.8487975690261
 20
-448.1845892984339
 30
0.0
  0
SPLINE
  5
1B7
330
1F
100
AcDbEntity
  8
0
  6
Continuous
 62
     7
370
    25
100
AcDbSpline
210
0.0
220
0.0
230
1.0
 70
     8
 71
     3
 72
    14
 73
    10
 74
     0
 42
0.00000001
 43
0.00000001
 40
0.0
 40
0.0
 40
0.0
 40
0.0
 40
0.0712798057068986
 40
0.2585323760758431
 40
0.4458670028012363
 40
0.6267438805900974
 40
0.8028728351981809
 40
0.9668889074466613
 40
1.0
 40
1.0
 40
1.0
 40
1.0
 10
678.2709400235043
 20
-602.1542809863438
 30
0.0
 10
678.4062087670959
 20
-602.2056835701843
 30
0.0
 10
678.8968294883884
 20
-602.392121117326
 30
0.0
 10
679.5844585153291
 20
-602.9857332144512
 30
0.0
 10
680.3251482022938
 20
-603.9415183682881
 30
0.0
 10
680.8705182519667
 20
-605.1632071907474
 30
0.0
 10
681.2066003094674
 20
-606.5586644194909
 30
0.0
 10
681.309348085081
 20
-607.6902024259978
 30
0.0
 10
681.3141745763348
 20
-608.3224115829925
 30
0.0
 10
681.3149852733221
 20
-608.4286026091321
 30
0.0
  0
SPLINE
  5
1B8
330
1F
100
AcDbEntity
  8
0
  6
Continuous
 62
     7
370
    25
100
AcDbSpline
210
0.0
220
0.0
230
1.0
 70
     8
 71
     3
 72
    24
 73
    20
 74
     0
 42
0.00000001
 43
0.00000001
 40
0.0
 40
0.0
 40
0.0
 40
0.0
 40
0.0324229057529913
 40
0.09456111059485
 40
0.1568567695300097
 40
0.2192876445379351
 40
0.2818328745102151
 40
0.3444502333831092
 40
0.4070900225668975
 40
0.4696896440419344
 40
0.5321888883775288
 40
0.5945360077933739
 40
0.6566878195578238
 40
0.7186287747917153
 40
0.7804146948241281
 40
0.8421982576920021
 40
0.9043533644144068
 40
0.9676651096299996
 40
0.9999999999999999
 40
0.9999999999999999
 40
0.9999999999999999
 40
0.9999999999999999
 10
681.3149852733221
 20
-608.4286026091321
 30
0.0
 10
681.3092181522953
 20
-608.7244329097919
 30
0.0
 10
681.2923983961206
 20
-609.587219298868
 30
0.0
 10
681.1028757665692
 20
-611.1152437368153
 30
0.0
 10
680.6763770958082
 20
-613.0066109084449
 30
0.0
 10
680.0421055861704
 20
-614.9395840752328
 30
0.0
 10
679.2161606594149
 20
-616.8670035648786
 30
0.0
 10
678.2151793230533
 20
-618.7453837042251
 30
0.0
 10
677.0618712703235
 20
-620.5313267098974
 30
0.0
 10
675.7829249604005
 20
-622.1839378487408
 30
0.0
 10
674.4088103738419
 20
-623.665696267211
 30
0.0
 10
672.9729150287122
 20
-624.9437334142705
 30
0.0
 10
671.5109075509338
 20
-625.9907606481601
 30
0.0
 10
670.0594391618379
 20
-626.7867689397513
 30
0.0
 10
668.655960445335
 20
-627.3182680348768
 30
0.0
 10
667.3321942840035
 20
-627.5861869411094
 30
0.0
 10
666.1240051645101
 20
-627.5796583148568
 30
0.0
 10
665.2020101057905
 20
-627.4042787743081
 30
0.0
 10
664.7384031623029
 20
-627.1383845265792
 30
0.0
 10
664.5816733452982
 20
-627.0484946805047
 30
0.0
  0
SPLINE
  5
1B9
330
1F
100
AcDbEntity
  8
0
  6
Continuous
 62
     7
370
    25
100
AcDbSpline
210
0.0
220
0.0
230
1.0
 70
     8
 71
     3
 72
    14
 73
    10
 74
     0
 42
0.00000001
 43
0.00000001
 40
0.0
 40
0.0
 40
0.0
 40
0.0
 40
0.0712798057068261
 40
0.2585323760757604
 40
0.4458670028011613
 40
0.6267438805900113
 40
0.8028728351980817
 40
0.9668889074465408
 40
0.9999999999999999
 40
0.9999999999999999
 40
0.9999999999999999
 40
0.9999999999999999
 10
719.633948059453
 20
-506.7913361948197
 30
0.0
 10
719.7692168030444
 20
-506.8427387786601
 30
0.0
 10
720.259837524337
 20
-507.0291763258018
 30
0.0
 10
720.9474665512776
 20
-507.6227884229269
 30
0.0
 10
721.6881562382426
 20
-508.5785735767635
 30
0.0
 10
722.2335262879155
 20
-509.8002623992228
 30
0.0
 10
722.5696083454163
 20
-511.1957196279661
 30
0.0
 10
722.6723561210301
 20
-512.3272576344733
 30
0.0
 10
722.677182612284
 20
-512.9594667914682
 30
0.0
 10
722.6779933092713
 20
-513.0656578176082
 30
0.0
  0
SPLINE
  5
1BA
330
1F
100
AcDbEntity
  8
0
  6
Continuous
 62
     7
370
    25
100
AcDbSpline
210
0.0
220
0.0
230
1.0
 70
     8
 71
     3
 72
    24
 73
    20
 74
     0
 42
0.00000001
 43
0.00000001
 40
0.0
 40
0.0
 40
0.0
 40
0.0
 40
0.0324229057529918
 40
0.0945611105948498
 40
0.1568567695300103
 40
0.2192876445379366
 40
0.2818328745102112
 40
0.3444502333831058
 40
0.4070900225668924
 40
0.4696896440419282
 40
0.532188888377517
 40
0.5945360077933654
 40
0.6566878195578162
 40
0.7186287747917142
 40
0.7804146948241236
 40
0.8421982576919937
 40
0.9043533644143985
 40
0.9676651096299854
 40
1.0
 40
1.0
 40
1.0
 40
1.0
 10
722.6779933092713
 20
-513.0656578176082
 30
0.0
 10
722.6722261882444
 20
-513.361488118268
 30
0.0
 10
722.6554064320698
 20
-514.2242745073441
 30
0.0
 10
722.4658838025184
 20
-515.7522989452914
 30
0.0
 10
722.0393851317575
 20
-517.6436661169213
 30
0.0
 10
721.4051136221195
 20
-519.5766392837089
 30
0.0
 10
720.5791686953639
 20
-521.5040587733547
 30
0.0
 10
719.5781873590026
 20
-523.3824389127011
 30
0.0
 10
718.4248793062728
 20
-525.1683819183735
 30
0.0
 10
717.1459329963499
 20
-526.8209930572167
 30
0.0
 10
715.7718184097912
 20
-528.3027514756869
 30
0.0
 10
714.3359230646616
 20
-529.5807886227464
 30
0.0
 10
712.8739155868832
 20
-530.6278158566361
 30
0.0
 10
711.4224471977872
 20
-531.4238241482274
 30
0.0
 10
710.0189684812843
 20
-531.9553232433531
 30
0.0
 10
708.6952023199528
 20
-532.2232421495856
 30
0.0
 10
707.4870132004595
 20
-532.2167135233329
 30
0.0
 10
706.5650181417398
 20
-532.0413339827842
 30
0.0
 10
706.1014111982522
 20
-531.7754397350553
 30
0.0
 10
705.9446813812474
 20
-531.685549888981
 30
0.0
  0
LWPOLYLINE
  5
1BB
330
1F
100
AcDbEntity
  8
0
  6
Continuous
 62
     7
370
    25
100
AcDbPolyline
 90
      184
 70
   128
 43
0.0
 10
1057.1232221274
 20
-475.5618264277
 10
1056.9994490045
 20
-467.3084027531
 10
1056.628275531
 20
-459.2076130549
 10
1056.0101392209
 20
-451.2690059892
 10
1055.1457686908
 20
-443.5019390423
 10
1054.0361828015
 20
-435.9155675007
 10
1052.682689457
 20
-428.5188336597
 10
1051.0868840624
 20
-421.3204562823
 10
1049.2506476438
 20
-414.328920323
 10
1047.176144631
 20
-407.5524669253
 10
1044.865820306
 20
-400.9990837085
 10
1042.322397921
 20
-394.6764953518
 10
1039.5488754879
 20
-388.5921544894
 10
1036.5485222452
 20
-382.7532329255
 10
1033.3248748037
 20
-377.1666131809
 10
1029.8817329782
 20
-371.8388803804
 10
1026.2231553085
 20
-366.7763144906
 10
1022.3534542753
 20
-361.9848829173
 10
1018.2771912172
 20
-357.4702334718
 10
1013.999170954
 20
-353.2376877138
 10
1009.5244361228
 20
-349.2922346784
 10
1004.8582612346
 20
-345.6385249952
 10
1000.0061464569
 20
-342.2808654071
 10
994.97381113
 20
-339.2232136932
 10
989.7671870264
 20
-336.4691740039
 10
984.3924113578
 20
-334.0219926125
 10
978.8558195418
 20
-331.884554089
 10
973.1639377334
 20
-330.0593778994
 10
967.3234751332
 20
-328.5486154364
 10
961.3413160785
 20
-327.3540474833
 10
955.2245119285
 20
-326.477082115
 10
948.9802727532
 20
-325.9187530382
 10
942.6159588339
 20
-325.6797183731
 10
936.1390719881
 20
-325.7602598772
 10
929.5572467263
 20
-326.1602826138
 10
922.8782412533
 20
-326.8793150635
 10
916.1099283234
 20
-327.91650968
 10
909.2602859603
 20
-329.2706438895
 10
902.3373880532
 20
-330.9401215312
 10
895.34939484
 20
-332.9229747392
 10
888.3045432885
 20
-335.216866262
 10
881.2111373873
 20
-337.8190922174
 10
874.0775383573
 20
-340.7265852796
 10
866.9121547966
 20
-343.935918295
 10
859.7234327684
 20
-347.4433083216
 10
852.519845846
 20
-351.2446210882
 10
845.3098851242
 20
-355.3353758678
 10
838.102049211
 20
-359.7107507588
 10
830.9048342095
 20
-364.3655883689
 10
823.726723704
 20
-369.2944018943
 10
816.5761787595
 20
-374.4913815874
 10
809.4616279485
 20
-379.9504016043
 10
802.3914574163
 20
-385.6650272261
 10
795.3740009957
 20
-391.6285224436
 10
788.4175303836
 20
-397.8338578971
 10
781.5302453912
 20
-404.2737191621
 10
774.7202642783
 20
-410.9405153712
 10
767.9956141843
 20
-417.8263881617
 10
761.364221666
 20
-424.9232209384
 10
754.8339033548
 20
-432.2226484408
 10
748.4123567426
 20
-439.7160666038
 10
742.1071511088
 20
-447.3946426993
 10
735.9257185979
 20
-455.2493257476
 10
729.8753454592
 20
-463.2708571864
 10
723.9631634581
 20
-471.4497817838
 10
718.1961414699
 20
-479.7764587837
 10
712.5810772651
 20
-488.2410732695
 10
707.1245894968
 20
-496.8336477334
 10
701.833109899
 20
-505.5440538372
 10
696.7128757055
 20
-514.3620243508
 10
691.7699222977
 20
-523.2771652544
 10
687.0100760905
 20
-532.2789679905
 10
682.4389476646
 20
-541.3568218507
 10
678.061925153
 20
-550.5000264825
 10
673.8841678902
 20
-559.6978045026
 10
669.9106003303
 20
-568.9393142002
 10
666.1459062426
 20
-578.2136623166
 10
662.5945231905
 20
-587.5099168855
 10
659.2606373013
 20
-596.8171201187
 10
656.1481783312
 20
-606.1243013224
 10
653.2608150337
 20
-615.420489829
 10
650.6019508349
 20
-624.6947279282
 10
648.1747198218
 20
-633.9360837832
 10
645.9819830481
 20
-643.1336643167
 10
644.0263251618
 20
-652.2766280508
 10
642.3100513583
 20
-661.354197886
 10
640.8351846637
 20
-670.3556738048
 10
639.6034635499
 20
-679.2704454837
 10
638.6163398853
 20
-688.0880048007
 10
637.8749772237
 20
-696.7979582205
 10
637.3802494326
 20
-705.3900390468
 10
637.1327396633
 20
-713.8541195232
 10
637.1327396633
 20
-722.1802227712
 10
637.3802494326
 20
-730.3585345506
 10
637.8749772237
 20
-738.3794148276
 10
638.6163398853
 20
-746.233409138
 10
639.6034635499
 20
-753.9112597312
 10
640.8351846637
 20
-761.4039164827
 10
642.3100513583
 20
-768.7025475619
 10
644.0263251618
 20
-775.7985498425
 10
645.9819830481
 20
-782.6835590429
 10
648.1747198218
 20
-789.3494595859
 10
650.6019508349
 20
-795.7883941644
 10
653.2608150337
 20
-801.9927730034
 10
656.1481783312
 20
-807.9552828061
 10
659.2606373013
 20
-813.6688953743
 10
662.5945231905
 20
-819.1268758927
 10
666.1459062426
 20
-824.3227908679
 10
669.9106003303
 20
-829.2505157111
 10
673.8841678902
 20
-833.9042419577
 10
678.061925153
 20
-838.278484114
 10
682.4389476646
 20
-842.368086123
 10
687.0100760905
 20
-846.1682274418
 10
691.7699222977
 20
-849.6744287243
 10
696.7128757055
 20
-852.8825571004
 10
701.833109899
 20
-855.7888310481
 10
707.1245894968
 20
-858.3898248508
 10
712.5810772651
 20
-860.6824726352
 10
718.1961414699
 20
-862.664071985
 10
723.9631634581
 20
-864.3322871266
 10
729.8753454592
 20
-865.6851516824
 10
735.9257185979
 20
-866.7210709882
 10
742.1071511088
 20
-867.4388239732
 10
748.4123567426
 20
-867.8375645995
 10
754.8339033548
 20
-867.9168228589
 10
761.364221666
 20
-867.6765053272
 10
767.9956141843
 20
-867.1168952743
 10
774.7202642783
 20
-866.23865233
 10
781.5302453912
 20
-865.0428117072
 10
788.4175303836
 20
-863.5307829807
 10
795.3740009957
 20
-861.7043484265
 10
802.3914574163
 20
-859.5656609206
 10
809.4616279485
 20
-857.1172414012
 10
816.5761787595
 20
-854.3619758977
 10
823.726723704
 20
-851.3031121284
 10
830.9048342095
 20
-847.9442556722
 10
838.102049211
 20
-844.2893657191
 10
845.3098851242
 20
-840.3427504032
 10
852.519845846
 20
-836.1090617242
 10
859.7234327684
 20
-831.5932900643
 10
866.9121547966
 20
-826.800758306
 10
874.0775383573
 20
-821.7371155574
 10
881.2111373873
 20
-816.4083304937
 10
888.3045432885
 20
-810.8206843218
 10
895.34939484
 20
-804.9807633764
 10
902.3373880532
 20
-798.8954513562
 10
909.2602859603
 20
-792.5719212103
 10
916.1099283234
 20
-786.0176266829
 10
922.8782412533
 20
-779.2402935275
 10
929.5572467263
 20
-772.2479104002
 10
936.1390719881
 20
-765.0487194433
 10
942.6159588339
 20
-757.6512065701
 10
948.9802727532
 20
-750.0640914621
 10
955.2245119285
 20
-742.2963172909
 10
961.3413160785
 20
-734.3570401766
 10
967.3234751332
 20
-726.2556183954
 10
973.1639377334
 20
-718.0016013484
 10
978.8558195418
 20
-709.6047183056
 10
984.3924113578
 20
-701.0748669375
 10
989.7671870264
 20
-692.4221016488
 10
994.97381113
 20
-683.6566217266
 10
1000.0061464569
 20
-674.7887593181
 10
1004.8582612346
 20
-665.8289672523
 10
1009.5244361228
 20
-656.7878067184
 10
1013.999170954
 20
-647.6759348172
 10
1018.2771912172
 20
-638.5040919991
 10
1022.3534542753
 20
-629.2830894044
 10
1026.2231553085
 20
-620.0237961193
 10
1029.8817329782
 20
-610.7371263645
 10
1033.3248748037
 20
-601.4340266304
 10
1036.5485222452
 20
-592.1254627737
 10
1039.5488754879
 20
-582.8224070919
 10
1042.322397921
 20
-573.5358253899
 10
1044.865820306
 20
-564.2766640541
 10
1047.176144631
 20
-555.0558371499
 10
1049.2506476438
 20
-545.8842135563
 10
1051.0868840624
 20
-536.772604155
 10
1052.682689457
 20
-527.7317490873
 10
1054.0361828015
 20
-518.7723050938
 10
1055.1457686908
 20
-509.9048329535
 10
1056.0101392209
 20
-501.1397850352
 10
1056.628275531
 20
-492.487492977
 10
1056.9994490045
 20
-483.9581555083
 10
1057.1232221274
 20
-475.5618264277
  0
ARC
  5
1BC
330
1F
100
AcDbEntity
  8
0
  6
Continuous
 62
     7
370
    25
100
AcDbCircle
 10
750.4732768053
 20
-765.794896441
 30
0.0
 40
103.2633021051246
100
AcDbArc
 50
214.2159027132
 51
264.9669583852
  0
ARC
  5
1BD
330
1F
100
AcDbEntity
  8
0
  6
Continuous
 62
     7
370
    25
100
AcDbCircle
 10
945.1535380304
 20
-428.5898645457
 30
0.0
 40
103.2460488439056
100
AcDbArc
 50
34.7571694425
 51
85.4847985821
  0
ARC
  5
1BE
330
1F
100
AcDbEntity
  8
0
  6
Continuous
 62
     7
370
    25
100
AcDbCircle
 10
973.2342729892
 20
-447.3017874139
 30
0.0
 40
105.4746843752897
100
AcDbArc
 50
34.5771513676
 51
59.6642405441
  0
ARC
  5
1BF
330
1F
100
AcDbEntity
  8
0
  6
Continuous
 62
     7
370
    25
100
AcDbCircle
 10
780.922188553
 20
-780.1795167102
 30
0.0
 40
106.0931956355073
100
AcDbArc
 50
240.4073853868
 51
265.822244208
  0
LWPOLYLINE
  5
1C0
330
1F
100
AcDbEntity
  8
0
  6
Continuous
 62
     7
370
    25
100
AcDbPolyline
 90
       42
 70
   128
 43
0.0
 10
722.9708865281
 20
-512.6574537617
 10
722.8445099029
 20
-514.6312360842
 10
722.4683421882
 20
-516.7046659676
 10
721.8512004365
 20
-518.8291439729
 10
721.0075499273
 20
-520.9548741361
 10
719.9571651136
 20
-523.032031144
 10
718.7246661251
 20
-525.0119281968
 10
717.3389416934
 20
-526.8481581857
 10
715.8324720249
 20
-528.497681436
 10
714.2405674916
 20
-529.9218345209
 10
712.6005409866
 20
-531.087236499
 10
710.9508333412
 20
-531.9665713358
 10
709.3301123043
 20
-532.539228168
 10
707.7763662034
 20
-532.7917844048
 10
706.3260135302
 20
-532.718320342
 10
705.0130493221
 20
-532.3205579151
 10
703.8682483474
 20
-531.6078203382
 10
702.9184437705
 20
-530.5968135759
 10
702.1858982057
 20
-529.31123477
 10
701.6877819002
 20
-527.7812167979
 10
701.4357702781
 20
-526.0426219843
 10
701.4357702781
 20
-524.136201518
 10
701.6877819002
 20
-522.1066402788
 10
702.1858982057
 20
-520.0015094622
 10
702.9184437705
 20
-517.8701515501
 10
703.8682483474
 20
-515.7625237655
 10
705.0130493221
 20
-513.7280271175
 10
706.3260135302
 20
-511.8143484831
 10
707.7763662034
 20
-510.0663428675
 10
709.3301123043
 20
-508.5249820408
 10
710.9508333412
 20
-507.2263941943
 10
712.6005409866
 20
-506.2010171267
 10
714.2405674916
 20
-505.4728848072
 10
715.8324720249
 20
-505.0590640403
 10
717.3389416934
 20
-504.9692544341
 10
718.7246661251
 20
-505.2055610495
 10
719.9571651136
 20
-505.7624450599
 10
721.0075499273
 20
-506.6268535759
 10
721.8512004365
 20
-507.7785255947
 10
722.4683421882
 20
-509.1904669002
 10
722.8445099029
 20
-510.8295827849
 10
722.9708865281
 20
-512.6574537617
  0
LWPOLYLINE
  5
1C1
330
1F
100
AcDbEntity
  8
0
  6
Continuous
 62
     7
370
    25
100
AcDbPolyline
 90
       42
 70
   128
 43
0.0
 10
667.0831216249
 20
-700.7271836685
 10
666.9567449997
 20
-702.700965991
 10
666.580577285
 20
-704.7743958744
 10
665.9634355333
 20
-706.8988738796
 10
665.1197850241
 20
-709.0246040429
 10
664.0694002104
 20
-711.1017610508
 10
662.8369012219
 20
-713.0816581036
 10
661.4511767902
 20
-714.9178880925
 10
659.9447071217
 20
-716.5674113428
 10
658.3528025884
 20
-717.9915644276
 10
656.7127760834
 20
-719.1569664058
 10
655.063068438
 20
-720.0363012426
 10
653.4423474011
 20
-720.6089580748
 10
651.8886013002
 20
-720.8615143116
 10
650.4382486271
 20
-720.7880502488
 10
649.125284419
 20
-720.3902878219
 10
647.9804834442
 20
-719.6775502449
 10
647.0306788673
 20
-718.6665434827
 10
646.2981333025
 20
-717.3809646767
 10
645.800016997
 20
-715.8509467047
 10
645.5480053749
 20
-714.1123518911
 10
645.5480053749
 20
-712.2059314248
 10
645.800016997
 20
-710.1763701856
 10
646.2981333025
 20
-708.0712393689
 10
647.0306788673
 20
-705.9398814568
 10
647.9804834442
 20
-703.8322536723
 10
649.125284419
 20
-701.7977570243
 10
650.4382486271
 20
-699.8840783899
 10
651.8886013002
 20
-698.1360727743
 10
653.4423474011
 20
-696.5947119475
 10
655.063068438
 20
-695.2961241011
 10
656.7127760834
 20
-694.2707470335
 10
658.3528025884
 20
-693.542614714
 10
659.9447071217
 20
-693.1287939471
 10
661.4511767902
 20
-693.0389843408
 10
662.8369012219
 20
-693.2752909563
 10
664.0694002104
 20
-693.8321749666
 10
665.1197850241
 20
-694.6965834827
 10
665.9634355333
 20
-695.8482555014
 10
666.580577285
 20
-697.2601968069
 10
666.9567449997
 20
-698.8993126916
 10
667.0831216249
 20
-700.7271836685
  0
LWPOLYLINE
  5
1C2
330
1F
100
AcDbEntity
  8
0
  6
Continuous
 62
     7
370
    25
100
AcDbPolyline
 90
       42
 70
   128
 43
0.0
 10
722.9708865281
 20
-824.2702737061
 10
722.8445099029
 20
-826.2440560286
 10
722.4683421882
 20
-828.3174859121
 10
721.8512004365
 20
-830.4419639173
 10
721.0075499273
 20
-832.5676940806
 10
719.9571651136
 20
-834.6448510885
 10
718.7246661251
 20
-836.6247481413
 10
717.3389416934
 20
-838.4609781301
 10
715.8324720249
 20
-840.1105013805
 10
714.2405674916
 20
-841.5346544653
 10
712.6005409866
 20
-842.7000564435
 10
710.9508333412
 20
-843.5793912803
 10
709.3301123043
 20
-844.1520481125
 10
707.7763662034
 20
-844.4046043493
 10
706.3260135302
 20
-844.3311402865
 10
705.0130493221
 20
-843.9333778596
 10
703.8682483474
 20
-843.2206402826
 10
702.9184437704
 20
-842.2096335203
 10
702.1858982057
 20
-840.9240547144
 10
701.6877819002
 20
-839.3940367424
 10
701.4357702781
 20
-837.6554419288
 10
701.4357702781
 20
-835.7490214624
 10
701.6877819002
 20
-833.7194602233
 10
702.1858982057
 20
-831.6143294066
 10
702.9184437704
 20
-829.4829714945
 10
703.8682483474
 20
-827.37534371
 10
705.0130493221
 20
-825.340847062
 10
706.3260135302
 20
-823.4271684276
 10
707.7763662034
 20
-821.6791628119
 10
709.3301123043
 20
-820.1378019852
 10
710.9508333412
 20
-818.8392141388
 10
712.6005409866
 20
-817.8138370711
 10
714.2405674916
 20
-817.0857047517
 10
715.8324720249
 20
-816.6718839848
 10
717.3389416934
 20
-816.5820743785
 10
718.7246661251
 20
-816.818380994
 10
719.9571651136
 20
-817.3752650043
 10
721.0075499273
 20
-818.2396735204
 10
721.8512004365
 20
-819.3913455391
 10
722.4683421882
 20
-820.8032868446
 10
722.8445099029
 20
-822.4424027293
 10
722.9708865281
 20
-824.2702737061
  0
LWPOLYLINE
  5
1C3
330
1F
100
AcDbEntity
  8
0
  6
Continuous
 62
     7
370
    25
100
AcDbPolyline
 90
       42
 70
   128
 43
0.0
 10
857.8958865281
 20
-810.9168572682
 10
857.7695099029
 20
-812.8906395907
 10
857.3933421882
 20
-814.9640694741
 10
856.7762004365
 20
-817.0885474793
 10
855.9325499273
 20
-819.2142776426
 10
854.8821651136
 20
-821.2914346505
 10
853.6496661251
 20
-823.2713317033
 10
852.2639416934
 20
-825.1075616922
 10
850.7574720249
 20
-826.7570849425
 10
849.1655674916
 20
-828.1812380274
 10
847.5255409866
 20
-829.3466400055
 10
845.8758333412
 20
-830.2259748423
 10
844.2551123043
 20
-830.7986316745
 10
842.7013662034
 20
-831.0511879113
 10
841.2510135302
 20
-830.9777238485
 10
839.9380493221
 20
-830.5799614216
 10
838.7932483474
 20
-829.8672238446
 10
837.8434437704
 20
-828.8562170824
 10
837.1108982057
 20
-827.5706382764
 10
836.6127819002
 20
-826.0406203044
 10
836.3607702781
 20
-824.3020254908
 10
836.3607702781
 20
-822.3956050245
 10
836.6127819002
 20
-820.3660437853
 10
837.1108982057
 20
-818.2609129686
 10
837.8434437704
 20
-816.1295550565
 10
838.7932483474
 20
-814.021927272
 10
839.9380493221
 20
-811.987430624
 10
841.2510135302
 20
-810.0737519896
 10
842.7013662034
 20
-808.325746374
 10
844.2551123043
 20
-806.7843855472
 10
845.8758333412
 20
-805.4857977008
 10
847.5255409866
 20
-804.4604206332
 10
849.1655674916
 20
-803.7322883137
 10
850.7574720249
 20
-803.3184675468
 10
852.2639416934
 20
-803.2286579405
 10
853.6496661251
 20
-803.464964556
 10
854.8821651136
 20
-804.0218485663
 10
855.9325499273
 20
-804.8862570824
 10
856.7762004365
 20
-806.0379291012
 10
857.3933421882
 20
-807.4498704066
 10
857.7695099029
 20
-809.0889862913
 10
857.8958865281
 20
-810.9168572682
  0
LWPOLYLINE
  5
1C4
330
1F
100
AcDbEntity
  8
0
  6
Continuous
 62
     7
370
    25
100
AcDbPolyline
 90
       42
 70
   128
 43
0.0
 10
992.8208865281
 20
-668.4891845999
 10
992.6945099029
 20
-670.4629669224
 10
992.3183421882
 20
-672.5363968058
 10
991.7012004365
 20
-674.660874811
 10
990.8575499273
 20
-676.7866049743
 10
989.8071651136
 20
-678.8637619822
 10
988.5746661251
 20
-680.843659035
 10
987.1889416934
 20
-682.6798890239
 10
985.6824720249
 20
-684.3294122742
 10
984.0905674916
 20
-685.7535653591
 10
982.4505409866
 20
-686.9189673372
 10
980.8008333412
 20
-687.798302174
 10
979.1801123043
 20
-688.3709590062
 10
977.6263662034
 20
-688.623515243
 10
976.1760135303
 20
-688.5500511802
 10
974.8630493222
 20
-688.1522887533
 10
973.7182483474
 20
-687.4395511763
 10
972.7684437705
 20
-686.4285444141
 10
972.0358982057
 20
-685.1429656081
 10
971.5377819002
 20
-683.6129476361
 10
971.2857702781
 20
-681.8743528225
 10
971.2857702781
 20
-679.9679323562
 10
971.5377819002
 20
-677.938371117
 10
972.0358982057
 20
-675.8332403003
 10
972.7684437705
 20
-673.7018823882
 10
973.7182483474
 20
-671.5942546037
 10
974.8630493222
 20
-669.5597579557
 10
976.1760135303
 20
-667.6460793213
 10
977.6263662034
 20
-665.8980737057
 10
979.1801123043
 20
-664.3567128789
 10
980.8008333412
 20
-663.0581250325
 10
982.4505409866
 20
-662.0327479649
 10
984.0905674916
 20
-661.3046156454
 10
985.6824720249
 20
-660.8907948785
 10
987.1889416934
 20
-660.8009852722
 10
988.5746661251
 20
-661.0372918877
 10
989.8071651136
 20
-661.594175898
 10
990.8575499273
 20
-662.4585844141
 10
991.7012004365
 20
-663.6102564329
 10
992.3183421882
 20
-665.0221977383
 10
992.6945099029
 20
-666.661313623
 10
992.8208865281
 20
-668.4891845999
  0
LWPOLYLINE
  5
1C5
330
1F
100
AcDbEntity
  8
0
  6
Continuous
 62
     7
370
    25
100
AcDbPolyline
 90
       42
 70
   128
 43
0.0
 10
1034.183894564
 20
-404.4825968988
 10
1034.0575179388
 20
-406.4563792213
 10
1033.6813502242
 20
-408.5298091048
 10
1033.0642084724
 20
-410.65428711
 10
1032.2205579633
 20
-412.7800172733
 10
1031.1701731496
 20
-414.8571742812
 10
1029.937674161
 20
-416.837071334
 10
1028.5519497294
 20
-418.6733013228
 10
1027.0454800608
 20
-420.3228245732
 10
1025.4535755276
 20
-421.746977658
 10
1023.8135490226
 20
-422.9123796362
 10
1022.1638413772
 20
-423.791714473
 10
1020.5431203403
 20
-424.3643713052
 10
1018.9893742394
 20
-424.616927542
 10
1017.5390215662
 20
-424.5434634792
 10
1016.2260573581
 20
-424.1457010523
 10
1015.0812563833
 20
-423.4329634753
 10
1014.1314518064
 20
-422.421956713
 10
1013.3989062416
 20
-421.1363779071
 10
1012.9007899362
 20
-419.6063599351
 10
1012.648778314
 20
-417.8677651215
 10
1012.648778314
 20
-415.9613446551
 10
1012.9007899362
 20
-413.931783416
 10
1013.3989062416
 20
-411.8266525993
 10
1014.1314518064
 20
-409.6952946872
 10
1015.0812563833
 20
-407.5876669027
 10
1016.2260573581
 20
-405.5531702547
 10
1017.5390215662
 20
-403.6394916203
 10
1018.9893742394
 20
-401.8914860046
 10
1020.5431203403
 20
-400.3501251779
 10
1022.1638413772
 20
-399.0515373315
 10
1023.8135490226
 20
-398.0261602638
 10
1025.4535755276
 20
-397.2980279444
 10
1027.0454800608
 20
-396.8842071775
 10
1028.5519497294
 20
-396.7943975712
 10
1029.937674161
 20
-397.0307041867
 10
1031.1701731496
 20
-397.587588197
 10
1032.2205579633
 20
-398.4519967131
 10
1033.0642084724
 20
-399.6036687318
 10
1033.6813502242
 20
-401.0156100373
 10
1034.0575179388
 20
-402.654725922
 10
1034.183894564
 20
-404.4825968988
  0
LWPOLYLINE
  5
1C6
330
1F
100
AcDbEntity
  8
0
  6
Continuous
 62
     7
370
    25
100
AcDbPolyline
 90
       42
 70
   128
 43
0.0
 10
930.9167703403
 20
-344.8483752703
 10
930.7903937151
 20
-346.8221575928
 10
930.4142260004
 20
-348.8955874762
 10
929.7970842487
 20
-351.0200654815
 10
928.9534337396
 20
-353.1457956447
 10
927.9030489258
 20
-355.2229526526
 10
926.6705499373
 20
-357.2028497054
 10
925.2848255057
 20
-359.0390796943
 10
923.7783558371
 20
-360.6886029446
 10
922.1864513038
 20
-362.1127560295
 10
920.5464247989
 20
-363.2781580076
 10
918.8967171534
 20
-364.1574928444
 10
917.2759961166
 20
-364.7301496766
 10
915.7222500157
 20
-364.9827059134
 10
914.2718973425
 20
-364.9092418506
 10
912.9589331344
 20
-364.5114794237
 10
911.8141321596
 20
-363.7987418468
 10
910.8643275827
 20
-362.7877350845
 10
910.1317820179
 20
-361.5021562786
 10
909.6336657125
 20
-359.9721383066
 10
909.3816540903
 20
-358.2335434929
 10
909.3816540903
 20
-356.3271230266
 10
909.6336657125
 20
-354.2975617875
 10
910.1317820179
 20
-352.1924309708
 10
910.8643275827
 20
-350.0610730587
 10
911.8141321596
 20
-347.9534452741
 10
912.9589331344
 20
-345.9189486261
 10
914.2718973425
 20
-344.0052699917
 10
915.7222500157
 20
-342.2572643761
 10
917.2759961166
 20
-340.7159035494
 10
918.8967171534
 20
-339.417315703
 10
920.5464247989
 20
-338.3919386353
 10
922.1864513038
 20
-337.6638063158
 10
923.7783558371
 20
-337.2499855489
 10
925.2848255057
 20
-337.1601759427
 10
926.6705499373
 20
-337.3964825581
 10
927.9030489258
 20
-337.9533665685
 10
928.9534337396
 20
-338.8177750845
 10
929.7970842487
 20
-339.9694471033
 10
930.4142260004
 20
-341.3813884088
 10
930.7903937151
 20
-343.0205042935
 10
930.9167703403
 20
-344.8483752703
  0
LWPOLYLINE
  5
1C7
330
1F
100
AcDbEntity
  8
0
  6
Continuous
 62
     7
370
    25
100
AcDbPolyline
 90
       42
 70
   128
 43
0.0
 10
857.8958865281
 20
-370.2297810934
 10
857.7695099029
 20
-372.2035634159
 10
857.3933421882
 20
-374.2769932993
 10
856.7762004365
 20
-376.4014713046
 10
855.9325499273
 20
-378.5272014678
 10
854.8821651136
 20
-380.6043584757
 10
853.6496661251
 20
-382.5842555285
 10
852.2639416935
 20
-384.4204855174
 10
850.7574720249
 20
-386.0700087677
 10
849.1655674916
 20
-387.4941618526
 10
847.5255409866
 20
-388.6595638307
 10
845.8758333412
 20
-389.5388986675
 10
844.2551123043
 20
-390.1115554997
 10
842.7013662035
 20
-390.3641117365
 10
841.2510135303
 20
-390.2906476737
 10
839.9380493222
 20
-389.8928852468
 10
838.7932483474
 20
-389.1801476699
 10
837.8434437705
 20
-388.1691409076
 10
837.1108982057
 20
-386.8835621017
 10
836.6127819002
 20
-385.3535441296
 10
836.3607702781
 20
-383.614949316
 10
836.3607702781
 20
-381.7085288497
 10
836.6127819002
 20
-379.6789676105
 10
837.1108982057
 20
-377.5738367939
 10
837.8434437705
 20
-375.4424788818
 10
838.7932483474
 20
-373.3348510972
 10
839.9380493222
 20
-371.3003544492
 10
841.2510135303
 20
-369.3866758148
 10
842.7013662035
 20
-367.6386701992
 10
844.2551123043
 20
-366.0973093725
 10
845.8758333412
 20
-364.798721526
 10
847.5255409866
 20
-363.7733444584
 10
849.1655674916
 20
-363.0452121389
 10
850.7574720249
 20
-362.631391372
 10
852.2639416935
 20
-362.5415817658
 10
853.6496661251
 20
-362.7778883812
 10
854.8821651136
 20
-363.3347723916
 10
855.9325499273
 20
-364.1991809076
 10
856.7762004365
 20
-365.3508529264
 10
857.3933421882
 20
-366.7627942319
 10
857.7695099029
 20
-368.4019101166
 10
857.8958865281
 20
-370.2297810934
  0
LWPOLYLINE
  5
1C8
330
1F
100
AcDbEntity
  8
0
  6
Continuous
 62
     7
370
    25
100
AcDbPolyline
 90
      157
 70
   128
 43
0.0
 10
999.8475728513
 20
-508.6263549566
 10
999.7237044345
 20
-515.799679892
 10
999.3523000993
 20
-523.104385098
 10
998.7339622647
 20
-530.5286223159
 10
997.869693877
 20
-538.060349406
 10
996.7608967827
 20
-545.6873498792
 10
995.4093694547
 20
-553.397252713
 10
993.8173040754
 20
-561.1775524168
 10
991.9872829805
 20
-569.0156293159
 10
989.922274471
 20
-576.898770021
 10
987.6256279983
 20
-584.814188049
 10
985.1010687312
 20
-592.749044563
 10
982.3526915143
 20
-600.6904691966
 10
979.3849542253
 20
-608.6255809301
 10
976.202670545
 20
-616.5415089832
 10
972.8110021492
 20
-624.4254136917
 10
969.2154503364
 20
-632.2645073333
 10
965.4218471048
 20
-640.0460748694
 10
961.4363456927
 20
-647.7574945691
 10
957.265410598
 20
-655.3862584814
 10
952.9158070927
 20
-662.9199927233
 10
948.3945902495
 20
-670.3464775504
 10
943.7090934987
 20
-677.653667177
 10
938.8669167332
 20
-684.829709315
 10
933.8759139814
 20
-691.8629643976
 10
928.744180668
 20
-698.7420244595
 10
923.4800404831
 20
-705.4557316401
 10
918.0920318816
 20
-711.9931962817
 10
912.5888942329
 20
-718.3438145929
 10
906.9795536464
 20
-724.4972858474
 10
901.2731084932
 20
-730.4436290925
 10
895.4788146482
 20
-736.1731993376
 10
889.606070477
 20
-741.6767031988
 10
883.6644015924
 20
-746.9452139728
 10
877.6634454028
 20
-751.9701861157
 10
871.6129354812
 20
-756.7434691045
 10
865.5226857769
 20
-761.2573206567
 10
859.4025746971
 20
-765.5044192885
 10
853.2625290843
 20
-769.4778761904
 10
847.112508115
 20
-773.1712464007
 10
840.9624871457
 20
-776.5785392596
 10
834.8224415329
 20
-779.6942281255
 10
828.7023304531
 20
-782.5132593397
 10
822.6120807488
 20
-785.0310604233
 10
816.5615708272
 20
-787.2435474936
 10
810.5606146376
 20
-789.1471318887
 10
804.618945753
 20
-790.7387259875
 10
798.7462015818
 20
-792.0157482187
 10
792.9519077367
 20
-792.9761272476
 10
787.2454625836
 20
-793.6183053358
 10
781.6361219971
 20
-793.9412408681
 10
776.1329843484
 20
-793.944410042
 10
770.7449757469
 20
-793.6278077169
 10
765.480835562
 20
-792.9919474231
 10
760.3491022486
 20
-792.0378605283
 10
755.3580994968
 20
-790.7670945649
 10
750.5159227313
 20
-789.1817107199
 10
745.8304259805
 20
-787.2842804917
 10
741.3092091373
 20
-785.0778815192
 10
736.959605632
 20
-782.5660925894
 10
732.7886705373
 20
-779.7529878333
 10
728.8031691252
 20
-776.643130117
 10
725.0095658936
 20
-773.2415636411
 10
721.4140140808
 20
-769.5538057589
 10
718.022345685
 20
-765.5858380272
 10
714.8400620047
 20
-761.344096504
 10
711.8723247157
 20
-756.8354613098
 10
709.1239474987
 20
-752.0672454672
 10
706.5993882317
 20
-747.0471830398
 10
704.302741759
 20
-741.7834165873
 10
702.2377332495
 20
-736.2844839579
 10
700.4077121546
 20
-730.5593044407
 10
698.8156467753
 20
-724.6171642976
 10
697.4641194473
 20
-718.4677017018
 10
696.355322353
 20
-712.120891104
 10
695.4910539653
 20
-705.5870270542
 10
694.8727161307
 20
-698.8767075039
 10
694.5013117955
 20
-692.0008166159
 10
694.3774433787
 20
-684.9705071103
 10
694.5013117955
 20
-677.7971821748
 10
694.8727161307
 20
-670.4924769689
 10
695.4910539653
 20
-663.0682397509
 10
696.355322353
 20
-655.5365126608
 10
697.4641194473
 20
-647.9095121876
 10
698.8156467753
 20
-640.1996093538
 10
700.4077121546
 20
-632.4193096501
 10
702.2377332495
 20
-624.581232751
 10
704.302741759
 20
-616.6980920459
 10
706.5993882317
 20
-608.7826740178
 10
709.1239474987
 20
-600.8478175039
 10
711.8723247157
 20
-592.9063928702
 10
714.8400620047
 20
-584.9712811367
 10
718.022345685
 20
-577.0553530836
 10
721.4140140808
 20
-569.1714483751
 10
725.0095658936
 20
-561.3323547335
 10
728.8031691252
 20
-553.5507871974
 10
732.7886705373
 20
-545.8393674977
 10
736.959605632
 20
-538.2106035854
 10
741.3092091373
 20
-530.6768693435
 10
745.8304259805
 20
-523.2503845165
 10
750.5159227313
 20
-515.9431948898
 10
755.3580994968
 20
-508.7671527519
 10
760.3491022486
 20
-501.7338976692
 10
765.480835562
 20
-494.8548376073
 10
770.7449757469
 20
-488.1411304268
 10
776.1329843484
 20
-481.6036657851
 10
781.6361219971
 20
-475.253047474
 10
787.2454625836
 20
-469.0995762194
 10
792.9519077368
 20
-463.1532329744
 10
798.7462015818
 20
-457.4236627293
 10
804.618945753
 20
-451.920158868
 10
810.5606146376
 20
-446.6516480941
 10
816.5615708272
 20
-441.6266759511
 10
822.6120807488
 20
-436.8533929623
 10
828.7023304531
 20
-432.3395414101
 10
834.8224415329
 20
-428.0924427784
 10
840.9624871457
 20
-424.1189858765
 10
847.112508115
 20
-420.4256156661
 10
853.2625290843
 20
-417.0183228072
 10
859.4025746971
 20
-413.9026339413
 10
865.5226857769
 20
-411.0836027271
 10
871.6129354812
 20
-408.5658016435
 10
877.6634454028
 20
-406.3533145732
 10
883.6644015924
 20
-404.4497301782
 10
889.606070477
 20
-402.8581360793
 10
895.4788146482
 20
-401.5811138481
 10
901.2731084932
 20
-400.6207348193
 10
906.9795536464
 20
-399.9785567311
 10
912.5888942329
 20
-399.6556211987
 10
918.0920318816
 20
-399.6524520249
 10
923.4800404831
 20
-399.9690543499
 10
928.744180668
 20
-400.6049146437
 10
933.8759139814
 20
-401.5590015385
 10
938.8669167332
 20
-402.8297675019
 10
943.7090934987
 20
-404.4151513469
 10
948.3945902495
 20
-406.3125815751
 10
952.9158070927
 20
-408.5189805476
 10
957.265410598
 20
-411.0307694774
 10
961.4363456927
 20
-413.8438742335
 10
965.4218471048
 20
-416.9537319498
 10
969.2154503364
 20
-420.3552984257
 10
972.8110021492
 20
-424.0430563079
 10
976.202670545
 20
-428.0110240397
 10
979.3849542253
 20
-432.2527655628
 10
982.3526915143
 20
-436.761400757
 10
985.1010687312
 20
-441.5296165996
 10
987.6256279983
 20
-446.549679027
 10
989.922274471
 20
-451.8134454796
 10
991.9872829805
 20
-457.3123781089
 10
993.8173040754
 20
-463.0375576262
 10
995.4093694547
 20
-468.9796977692
 10
996.7608967827
 20
-475.1291603651
 10
997.869693877
 20
-481.4759709629
 10
998.7339622647
 20
-488.0098350126
 10
999.3523000992
 20
-494.7201545629
 10
999.7237044345
 20
-501.596045451
 10
999.8475728513
 20
-508.6263549566
  0
LWPOLYLINE
  5
1C9
330
1F
100
AcDbEntity
  8
0
  6
Continuous
 62
     7
370
    25
100
AcDbPolyline
 90
       42
 70
   128
 43
0.0
 10
1048.7086514313
 20
-480.4194546931
 10
1048.5822748061
 20
-482.3932370156
 10
1048.2061070914
 20
-484.466666899
 10
1047.5889653397
 20
-486.5911449043
 10
1046.7453148305
 20
-488.7168750675
 10
1045.6949300168
 20
-490.7940320754
 10
1044.4624310283
 20
-492.7739291282
 10
1043.0767065966
 20
-494.6101591171
 10
1041.5702369281
 20
-496.2596823674
 10
1039.9783323948
 20
-497.6838354523
 10
1038.3383058898
 20
-498.8492374304
 10
1036.6885982444
 20
-499.7285722672
 10
1035.0678772075
 20
-500.3012290994
 10
1033.5141311066
 20
-500.5537853362
 10
1032.0637784334
 20
-500.4803212735
 10
1030.7508142253
 20
-500.0825588465
 10
1029.6060132506
 20
-499.3698212696
 10
1028.6562086737
 20
-498.3588145073
 10
1027.9236631089
 20
-497.0732357014
 10
1027.4255468034
 20
-495.5432177294
 10
1027.1735351813
 20
-493.8046229157
 10
1027.1735351813
 20
-491.8982024494
 10
1027.4255468034
 20
-489.8686412103
 10
1027.9236631089
 20
-487.7635103936
 10
1028.6562086737
 20
-485.6321524815
 10
1029.6060132506
 20
-483.5245246969
 10
1030.7508142253
 20
-481.4900280489
 10
1032.0637784334
 20
-479.5763494145
 10
1033.5141311066
 20
-477.8283437989
 10
1035.0678772075
 20
-476.2869829722
 10
1036.6885982444
 20
-474.9883951258
 10
1038.3383058898
 20
-473.9630180581
 10
1039.9783323948
 20
-473.2348857386
 10
1041.5702369281
 20
-472.8210649717
 10
1043.0767065966
 20
-472.7312553655
 10
1044.4624310283
 20
-472.9675619809
 10
1045.6949300168
 20
-473.5244459913
 10
1046.7453148305
 20
-474.3888545073
 10
1047.5889653397
 20
-475.5405265261
 10
1048.2061070914
 20
-476.9524678316
 10
1048.5822748061
 20
-478.5915837163
 10
1048.7086514313
 20
-480.4194546931
  0
LWPOLYLINE
  5
1CA
330
1F
100
AcDbEntity
  8
0
  6
Continuous
 62
     7
370
    25
100
AcDbPolyline
 90
       42
 70
   128
 43
0.0
 10
992.8208865281
 20
-356.8763646554
 10
992.6945099029
 20
-358.8501469779
 10
992.3183421882
 20
-360.9235768613
 10
991.7012004365
 20
-363.0480548666
 10
990.8575499273
 20
-365.1737850298
 10
989.8071651136
 20
-367.2509420377
 10
988.5746661251
 20
-369.2308390905
 10
987.1889416935
 20
-371.0670690794
 10
985.6824720249
 20
-372.7165923297
 10
984.0905674916
 20
-374.1407454146
 10
982.4505409866
 20
-375.3061473928
 10
980.8008333412
 20
-376.1854822296
 10
979.1801123043
 20
-376.7581390617
 10
977.6263662035
 20
-377.0106952985
 10
976.1760135303
 20
-376.9372312358
 10
974.8630493222
 20
-376.5394688088
 10
973.7182483474
 20
-375.8267312319
 10
972.7684437705
 20
-374.8157244696
 10
972.0358982057
 20
-373.5301456637
 10
971.5377819002
 20
-372.0001276917
 10
971.2857702781
 20
-370.2615328781
 10
971.2857702781
 20
-368.3551124117
 10
971.5377819002
 20
-366.3255511726
 10
972.0358982057
 20
-364.2204203559
 10
972.7684437705
 20
-362.0890624438
 10
973.7182483474
 20
-359.9814346593
 10
974.8630493222
 20
-357.9469380112
 10
976.1760135303
 20
-356.0332593768
 10
977.6263662035
 20
-354.2852537612
 10
979.1801123043
 20
-352.7438929345
 10
980.8008333412
 20
-351.4453050881
 10
982.4505409866
 20
-350.4199280204
 10
984.0905674916
 20
-349.6917957009
 10
985.6824720249
 20
-349.277974934
 10
987.1889416935
 20
-349.1881653278
 10
988.5746661251
 20
-349.4244719432
 10
989.8071651136
 20
-349.9813559536
 10
990.8575499273
 20
-350.8457644696
 10
991.7012004365
 20
-351.9974364884
 10
992.3183421882
 20
-353.4093777939
 10
992.6945099029
 20
-355.0484936786
 10
992.8208865281
 20
-356.8763646554
  0
LWPOLYLINE
  5
1CB
330
1F
100
AcDbEntity
  8
0
  6
Continuous
 62
     7
370
    25
100
AcDbPolyline
 90
       42
 70
   128
 43
0.0
 10
1034.183894564
 20
-573.1262398083
 10
1034.0575179388
 20
-575.1000221308
 10
1033.6813502242
 20
-577.1734520143
 10
1033.0642084724
 20
-579.2979300195
 10
1032.2205579633
 20
-581.4236601827
 10
1031.1701731495
 20
-583.5008171906
 10
1029.937674161
 20
-585.4807142435
 10
1028.5519497294
 20
-587.3169442323
 10
1027.0454800608
 20
-588.9664674827
 10
1025.4535755276
 20
-590.3906205675
 10
1023.8135490226
 20
-591.5560225457
 10
1022.1638413772
 20
-592.4353573825
 10
1020.5431203403
 20
-593.0080142147
 10
1018.9893742394
 20
-593.2605704515
 10
1017.5390215662
 20
-593.1871063887
 10
1016.2260573581
 20
-592.7893439618
 10
1015.0812563833
 20
-592.0766063848
 10
1014.1314518064
 20
-591.0655996225
 10
1013.3989062416
 20
-589.7800208166
 10
1012.9007899362
 20
-588.2500028446
 10
1012.648778314
 20
-586.511408031
 10
1012.648778314
 20
-584.6049875646
 10
1012.9007899362
 20
-582.5754263255
 10
1013.3989062416
 20
-580.4702955088
 10
1014.1314518064
 20
-578.3389375967
 10
1015.0812563833
 20
-576.2313098122
 10
1016.2260573581
 20
-574.1968131642
 10
1017.5390215662
 20
-572.2831345297
 10
1018.9893742394
 20
-570.5351289141
 10
1020.5431203403
 20
-568.9937680874
 10
1022.1638413772
 20
-567.695180241
 10
1023.8135490226
 20
-566.6698031733
 10
1025.4535755276
 20
-565.9416708539
 10
1027.0454800608
 20
-565.527850087
 10
1028.5519497294
 20
-565.4380404807
 10
1029.937674161
 20
-565.6743470962
 10
1031.1701731495
 20
-566.2312311065
 10
1032.2205579633
 20
-567.0956396226
 10
1033.0642084724
 20
-568.2473116413
 10
1033.6813502242
 20
-569.6592529468
 10
1034.0575179388
 20
-571.2983688315
 10
1034.183894564
 20
-573.1262398083
  0
LWPOLYLINE
  5
1CC
330
1F
100
AcDbEntity
  8
0
  6
Continuous
 62
     7
370
    25
100
AcDbPolyline
 90
       42
 70
   128
 43
0.0
 10
930.9167703403
 20
-751.9901451904
 10
930.7903937151
 20
-753.9639275129
 10
930.4142260004
 20
-756.0373573963
 10
929.7970842487
 20
-758.1618354016
 10
928.9534337395
 20
-760.2875655648
 10
927.9030489258
 20
-762.3647225727
 10
926.6705499373
 20
-764.3446196255
 10
925.2848255057
 20
-766.1808496144
 10
923.7783558371
 20
-767.8303728647
 10
922.1864513038
 20
-769.2545259496
 10
920.5464247989
 20
-770.4199279277
 10
918.8967171534
 20
-771.2992627646
 10
917.2759961166
 20
-771.8719195967
 10
915.7222500157
 20
-772.1244758335
 10
914.2718973425
 20
-772.0510117708
 10
912.9589331344
 20
-771.6532493438
 10
911.8141321596
 20
-770.9405117669
 10
910.8643275827
 20
-769.9295050046
 10
910.1317820179
 20
-768.6439261987
 10
909.6336657124
 20
-767.1139082267
 10
909.3816540903
 20
-765.3753134131
 10
909.3816540903
 20
-763.4688929467
 10
909.6336657124
 20
-761.4393317076
 10
910.1317820179
 20
-759.3342008909
 10
910.8643275827
 20
-757.2028429788
 10
911.8141321596
 20
-755.0952151943
 10
912.9589331344
 20
-753.0607185462
 10
914.2718973425
 20
-751.1470399118
 10
915.7222500157
 20
-749.3990342962
 10
917.2759961166
 20
-747.8576734695
 10
918.8967171534
 20
-746.5590856231
 10
920.5464247989
 20
-745.5337085554
 10
922.1864513038
 20
-744.8055762359
 10
923.7783558371
 20
-744.391755469
 10
925.2848255057
 20
-744.3019458628
 10
926.6705499373
 20
-744.5382524782
 10
927.9030489258
 20
-745.0951364886
 10
928.9534337395
 20
-745.9595450046
 10
929.7970842487
 20
-747.1112170234
 10
930.4142260004
 20
-748.5231583289
 10
930.7903937151
 20
-750.1622742136
 10
930.9167703403
 20
-751.9901451904
  0
LWPOLYLINE
  5
1CD
330
1F
100
AcDbEntity
  8
0
  6
Continuous
 62
     7
370
    25
100
AcDbPolyline
 90
       42
 70
   128
 43
0.0
 10
784.8750027159
 20
-836.2982630913
 10
784.7486260906
 20
-838.2720454138
 10
784.372458376
 20
-840.3454752972
 10
783.7553166242
 20
-842.4699533024
 10
782.9116661151
 20
-844.5956834657
 10
781.8612813014
 20
-846.6728404736
 10
780.6287823128
 20
-848.6527375264
 10
779.2430578812
 20
-850.4889675153
 10
777.7365882126
 20
-852.1384907656
 10
776.1446836794
 20
-853.5626438504
 10
774.5046571744
 20
-854.7280458286
 10
772.854949529
 20
-855.6073806654
 10
771.2342284921
 20
-856.1800374976
 10
769.6804823912
 20
-856.4325937344
 10
768.230129718
 20
-856.3591296716
 10
766.9171655099
 20
-855.9613672447
 10
765.7723645351
 20
-855.2486296677
 10
764.8225599582
 20
-854.2376229055
 10
764.0900143934
 20
-852.9520440995
 10
763.591898088
 20
-851.4220261275
 10
763.3398864658
 20
-849.6834313139
 10
763.3398864658
 20
-847.7770108476
 10
763.591898088
 20
-845.7474496084
 10
764.0900143935
 20
-843.6423187917
 10
764.8225599582
 20
-841.5109608796
 10
765.7723645351
 20
-839.4033330951
 10
766.9171655099
 20
-837.3688364471
 10
768.230129718
 20
-835.4551578127
 10
769.6804823912
 20
-833.7071521971
 10
771.2342284921
 20
-832.1657913703
 10
772.854949529
 20
-830.8672035239
 10
774.5046571744
 20
-829.8418264563
 10
776.1446836794
 20
-829.1136941368
 10
777.7365882126
 20
-828.6998733699
 10
779.2430578812
 20
-828.6100637636
 10
780.6287823128
 20
-828.8463703791
 10
781.8612813014
 20
-829.4032543894
 10
782.9116661151
 20
-830.2676629055
 10
783.7553166242
 20
-831.4193349242
 10
784.372458376
 20
-832.8312762297
 10
784.7486260906
 20
-834.4703921144
 10
784.8750027159
 20
-836.2982630913
  0
LWPOLYLINE
  5
1CE
330
1F
100
AcDbEntity
  8
0
  6
Continuous
 62
     7
370
    25
100
AcDbPolyline
 90
       42
 70
   128
 43
0.0
 10
681.6078784921
 20
-776.6640414627
 10
681.4815018669
 20
-778.6378237852
 10
681.1053341522
 20
-780.7112536686
 10
680.4881924005
 20
-782.8357316739
 10
679.6445418914
 20
-784.9614618371
 10
678.5941570776
 20
-787.038618845
 10
677.3616580891
 20
-789.0185158978
 10
675.9759336575
 20
-790.8547458867
 10
674.4694639889
 20
-792.504269137
 10
672.8775594556
 20
-793.9284222219
 10
671.2375329507
 20
-795.0938242001
 10
669.5878253053
 20
-795.9731590369
 10
667.9671042684
 20
-796.545815869
 10
666.4133581675
 20
-796.7983721058
 10
664.9630054943
 20
-796.7249080431
 10
663.6500412862
 20
-796.3271456161
 10
662.5052403114
 20
-795.6144080392
 10
661.5554357345
 20
-794.6034012769
 10
660.8228901697
 20
-793.317822471
 10
660.3247738643
 20
-791.787804499
 10
660.0727622421
 20
-790.0492096854
 10
660.0727622421
 20
-788.142789219
 10
660.3247738643
 20
-786.1132279799
 10
660.8228901697
 20
-784.0080971632
 10
661.5554357345
 20
-781.8767392511
 10
662.5052403114
 20
-779.7691114666
 10
663.6500412862
 20
-777.7346148186
 10
664.9630054943
 20
-775.8209361841
 10
666.4133581675
 20
-774.0729305685
 10
667.9671042684
 20
-772.5315697418
 10
669.5878253053
 20
-771.2329818954
 10
671.2375329507
 20
-770.2076048277
 10
672.8775594556
 20
-769.4794725082
 10
674.4694639889
 20
-769.0656517413
 10
675.9759336575
 20
-768.9758421351
 10
677.3616580891
 20
-769.2121487505
 10
678.5941570776
 20
-769.7690327609
 10
679.6445418914
 20
-770.6334412769
 10
680.4881924005
 20
-771.7851132957
 10
681.1053341522
 20
-773.1970546012
 10
681.4815018669
 20
-774.8361704859
 10
681.6078784921
 20
-776.6640414627
  0
LWPOLYLINE
  5
1CF
330
1F
100
AcDbEntity
  8
0
  6
Continuous
 62
     7
370
    25
100
AcDbPolyline
 90
       42
 70
   128
 43
0.0
 10
681.6078784921
 20
-608.0203985532
 10
681.4815018669
 20
-609.9941808757
 10
681.1053341522
 20
-612.0676107591
 10
680.4881924005
 20
-614.1920887644
 10
679.6445418914
 20
-616.3178189276
 10
678.5941570776
 20
-618.3949759355
 10
677.3616580891
 20
-620.3748729883
 10
675.9759336575
 20
-622.2111029772
 10
674.4694639889
 20
-623.8606262275
 10
672.8775594557
 20
-625.2847793124
 10
671.2375329507
 20
-626.4501812906
 10
669.5878253053
 20
-627.3295161274
 10
667.9671042684
 20
-627.9021729596
 10
666.4133581675
 20
-628.1547291963
 10
664.9630054943
 20
-628.0812651336
 10
663.6500412862
 20
-627.6835027066
 10
662.5052403114
 20
-626.9707651297
 10
661.5554357345
 20
-625.9597583674
 10
660.8228901697
 20
-624.6741795615
 10
660.3247738643
 20
-623.1441615895
 10
660.0727622421
 20
-621.4055667759
 10
660.0727622421
 20
-619.4991463095
 10
660.3247738643
 20
-617.4695850704
 10
660.8228901697
 20
-615.3644542537
 10
661.5554357345
 20
-613.2330963416
 10
662.5052403114
 20
-611.1254685571
 10
663.6500412862
 20
-609.0909719091
 10
664.9630054943
 20
-607.1772932746
 10
666.4133581675
 20
-605.429287659
 10
667.9671042684
 20
-603.8879268323
 10
669.5878253053
 20
-602.5893389859
 10
671.2375329507
 20
-601.5639619182
 10
672.8775594557
 20
-600.8358295987
 10
674.4694639889
 20
-600.4220088318
 10
675.9759336575
 20
-600.3321992256
 10
677.3616580891
 20
-600.568505841
 10
678.5941570776
 20
-601.1253898514
 10
679.6445418914
 20
-601.9897983674
 10
680.4881924005
 20
-603.1414703862
 10
681.1053341522
 20
-604.5534116917
 10
681.4815018669
 20
-606.1925275764
 10
681.6078784921
 20
-608.0203985532
  0
LWPOLYLINE
  5
1D0
330
1F
100
AcDbEntity
  8
0
  6
Continuous
 62
     7
370
    25
100
AcDbPolyline
 90
       42
 70
   128
 43
0.0
 10
784.8750027159
 20
-429.1564931711
 10
784.7486260906
 20
-431.1302754936
 10
784.372458376
 20
-433.2037053771
 10
783.7553166243
 20
-435.3281833823
 10
782.9116661151
 20
-437.4539135456
 10
781.8612813014
 20
-439.5310705535
 10
780.6287823129
 20
-441.5109676063
 10
779.2430578812
 20
-443.3471975951
 10
777.7365882127
 20
-444.9967208455
 10
776.1446836794
 20
-446.4208739303
 10
774.5046571744
 20
-447.5862759085
 10
772.854949529
 20
-448.4656107453
 10
771.2342284921
 20
-449.0382675775
 10
769.6804823912
 20
-449.2908238143
 10
768.230129718
 20
-449.2173597515
 10
766.9171655099
 20
-448.8195973246
 10
765.7723645351
 20
-448.1068597476
 10
764.8225599582
 20
-447.0958529853
 10
764.0900143935
 20
-445.8102741794
 10
763.591898088
 20
-444.2802562074
 10
763.3398864658
 20
-442.5416613938
 10
763.3398864658
 20
-440.6352409274
 10
763.591898088
 20
-438.6056796883
 10
764.0900143935
 20
-436.5005488716
 10
764.8225599582
 20
-434.3691909595
 10
765.7723645351
 20
-432.261563175
 10
766.9171655099
 20
-430.227066527
 10
768.230129718
 20
-428.3133878926
 10
769.6804823912
 20
-426.5653822769
 10
771.2342284921
 20
-425.0240214502
 10
772.854949529
 20
-423.7254336038
 10
774.5046571744
 20
-422.7000565361
 10
776.1446836794
 20
-421.9719242167
 10
777.7365882127
 20
-421.5581034498
 10
779.2430578812
 20
-421.4682938435
 10
780.6287823129
 20
-421.704600459
 10
781.8612813014
 20
-422.2614844693
 10
782.9116661151
 20
-423.1258929854
 10
783.7553166243
 20
-424.2775650041
 10
784.372458376
 20
-425.6895063096
 10
784.7486260906
 20
-427.3286221943
 10
784.8750027159
 20
-429.1564931711
  0
ARC
  5
1D1
330
1F
100
AcDbEntity
  8
0
  6
Continuous
 62
     7
370
    25
100
AcDbCircle
 10
918.0558954469
 20
-475.4638421506
 30
0.0
 40
74.40420306154229
100
AcDbArc
 50
36.6928703746
 51
85.8198026459
  0
ARC
  5
1D2
330
1F
100
AcDbEntity
  8
0
  6
Continuous
 62
     7
370
    25
100
AcDbCircle
 10
777.2501567519
 20
-719.4207421517
 30
0.0
 40
73.84840546802981
100
AcDbArc
 50
217.1729721042
 51
261.7181774388
  0
ARC
  5
1D3
330
1F
100
AcDbEntity
  8
0
  6
Continuous
 62
     7
370
    25
100
AcDbCircle
 10
811.3623907742
 20
-732.4260597093
 30
0.0
 40
79.87017022886569
100
AcDbArc
 50
216.6346199673
 51
226.3261571978
  0
ARC
  5
1D4
330
1F
100
AcDbEntity
  8
0
  6
Continuous
 62
     7
370
    25
100
AcDbCircle
 10
946.6312948189
 20
-498.177362444
 30
0.0
 40
80.04135264011265
100
AcDbArc
 50
73.6749286068
 51
84.7984210805
  0
LINE
  5
1D5
330
1F
100
AcDbEntity
  8
0
  6
Continuous
 62
     7
370
    25
100
AcDbLine
 10
989.8690358662
 20
-662.7813042195
 30
0.0
 11
989.441382925
 21
-662.5624264672
 31
0.0
  0
LINE
  5
1D6
330
1F
100
AcDbEntity
  8
0
  6
Continuous
 62
     7
370
    25
100
AcDbLine
 10
975.6201939261
 20
-687.4636967974
 30
0.0
 11
975.8018780261
 21
-687.5633635962
 31
0.0
  0
LINE
  5
1D7
330
1F
100
AcDbEntity
  8
0
  6
Continuous
 62
     7
370
    25
100
AcDbLine
 10
1031.2320439022
 20
-567.418359428
 30
0.0
 11
1030.8043909609
 21
-567.1994816757
 31
0.0
  0
LINE
  5
1D8
330
1F
100
AcDbEntity
  8
0
  6
Continuous
 62
     7
370
    25
100
AcDbLine
 10
1016.9832019621
 20
-592.1007520058
 30
0.0
 11
1017.1648860621
 21
-592.2004188046
 31
0.0
  0
LINE
  5
1D9
330
1F
100
AcDbEntity
  8
0
  6
Continuous
 62
     7
370
    25
100
AcDbLine
 10
927.9649196784
 20
-746.28226481
 30
0.0
 11
927.5372667372
 21
-746.0633870578
 31
0.0
  0
LINE
  5
1DA
330
1F
100
AcDbEntity
  8
0
  6
Continuous
 62
     7
370
    25
100
AcDbLine
 10
913.7160777384
 20
-770.9646573879
 30
0.0
 11
913.8977618383
 21
-771.0643241867
 31
0.0
  0
LINE
  5
1DB
330
1F
100
AcDbEntity
  8
0
  6
Continuous
 62
     7
370
    25
100
AcDbLine
 10
1045.7568007694
 20
-474.7115743127
 30
0.0
 11
1045.3291478282
 21
-474.4926965605
 31
0.0
  0
LINE
  5
1DC
330
1F
100
AcDbEntity
  8
0
  6
Continuous
 62
     7
370
    25
100
AcDbLine
 10
1031.5079588293
 20
-499.3939668906
 30
0.0
 11
1031.6896429293
 21
-499.4936336894
 31
0.0
  0
LINE
  5
1DD
330
1F
100
AcDbEntity
  8
0
  6
Continuous
 62
     7
370
    25
100
AcDbLine
 10
854.9440358662
 20
-805.2089768878
 30
0.0
 11
854.516382925
 21
-804.9900991355
 31
0.0
  0
LINE
  5
1DE
330
1F
100
AcDbEntity
  8
0
  6
Continuous
 62
     7
370
    25
100
AcDbLine
 10
840.6951939261
 20
-829.8913694657
 30
0.0
 11
840.8768780261
 21
-829.9910362645
 31
0.0
  0
LINE
  5
1DF
330
1F
100
AcDbEntity
  8
0
  6
Continuous
 62
     7
370
    25
100
AcDbLine
 10
1031.2320439022
 20
-398.7747165185
 30
0.0
 11
1030.8043909609
 21
-398.5558387662
 31
0.0
  0
LINE
  5
1E0
330
1F
100
AcDbEntity
  8
0
  6
Continuous
 62
     7
370
    25
100
AcDbLine
 10
1016.9832019621
 20
-423.4571090963
 30
0.0
 11
1017.1648860621
 21
-423.5567758951
 31
0.0
  0
LINE
  5
1E1
330
1F
100
AcDbEntity
  8
0
  6
Continuous
 62
     7
370
    25
100
AcDbLine
 10
781.923152054
 20
-830.5903827109
 30
0.0
 11
781.4954991127
 21
-830.3715049586
 31
0.0
  0
LINE
  5
1E2
330
1F
100
AcDbEntity
  8
0
  6
Continuous
 62
     7
370
    25
100
AcDbLine
 10
767.6743101139
 20
-855.2727752887
 30
0.0
 11
767.8559942139
 21
-855.3724420876
 31
0.0
  0
LINE
  5
1E3
330
1F
100
AcDbEntity
  8
0
  6
Continuous
 62
     7
370
    25
100
AcDbLine
 10
989.8690358662
 20
-351.1684842751
 30
0.0
 11
989.441382925
 21
-350.9496065228
 31
0.0
  0
LINE
  5
1E4
330
1F
100
AcDbEntity
  8
0
  6
Continuous
 62
     7
370
    25
100
AcDbLine
 10
975.6201939262
 20
-375.8508768529
 30
0.0
 11
975.8018780261
 21
-375.9505436517
 31
0.0
  0
LINE
  5
1E5
330
1F
100
AcDbEntity
  8
0
  6
Continuous
 62
     7
370
    25
100
AcDbLine
 10
720.0190358662
 20
-818.5623933258
 30
0.0
 11
719.591382925
 21
-818.3435155735
 31
0.0
  0
LINE
  5
1E6
330
1F
100
AcDbEntity
  8
0
  6
Continuous
 62
     7
370
    25
100
AcDbLine
 10
705.7701939261
 20
-843.2447859036
 30
0.0
 11
705.9518780261
 21
-843.3444527024
 31
0.0
  0
LINE
  5
1E7
330
1F
100
AcDbEntity
  8
0
  6
Continuous
 62
     7
370
    25
100
AcDbLine
 10
927.9649196784
 20
-339.1404948899
 30
0.0
 11
927.5372667372
 21
-338.9216171377
 31
0.0
  0
LINE
  5
1E8
330
1F
100
AcDbEntity
  8
0
  6
Continuous
 62
     7
370
    25
100
AcDbLine
 10
913.7160777384
 20
-363.8228874678
 30
0.0
 11
913.8977618383
 21
-363.9225542666
 31
0.0
  0
LINE
  5
1E9
330
1F
100
AcDbEntity
  8
0
  6
Continuous
 62
     7
370
    25
100
AcDbLine
 10
678.6560278303
 20
-770.9561610824
 30
0.0
 11
678.228374889
 21
-770.7372833301
 31
0.0
  0
LINE
  5
1EA
330
1F
100
AcDbEntity
  8
0
  6
Continuous
 62
     7
370
    25
100
AcDbLine
 10
664.4071858902
 20
-795.6385536602
 30
0.0
 11
664.5888699901
 21
-795.738220459
 31
0.0
  0
LINE
  5
1EB
330
1F
100
AcDbEntity
  8
0
  6
Continuous
 62
     7
370
    25
100
AcDbLine
 10
854.9440358662
 20
-364.521900713
 30
0.0
 11
854.516382925
 21
-364.3030229608
 31
0.0
  0
LINE
  5
1EC
330
1F
100
AcDbEntity
  8
0
  6
Continuous
 62
     7
370
    25
100
AcDbLine
 10
840.6951939262
 20
-389.2042932909
 30
0.0
 11
840.8768780261
 21
-389.3039600897
 31
0.0
  0
LINE
  5
1ED
330
1F
100
AcDbEntity
  8
0
  6
Continuous
 62
     7
370
    25
100
AcDbLine
 10
664.131270963
 20
-695.0193032881
 30
0.0
 11
663.7036180218
 21
-694.8004255358
 31
0.0
  0
LINE
  5
1EE
330
1F
100
AcDbEntity
  8
0
  6
Continuous
 62
     7
370
    25
100
AcDbLine
 10
649.8824290229
 20
-719.7016958659
 30
0.0
 11
650.0641131229
 21
-719.8013626648
 31
0.0
  0
LINE
  5
1EF
330
1F
100
AcDbEntity
  8
0
  6
Continuous
 62
     7
370
    25
100
AcDbLine
 10
781.923152054
 20
-423.4486127908
 30
0.0
 11
781.4954991127
 21
-423.2297350385
 31
0.0
  0
LINE
  5
1F0
330
1F
100
AcDbEntity
  8
0
  6
Continuous
 62
     7
370
    25
100
AcDbLine
 10
767.6743101139
 20
-448.1310053686
 30
0.0
 11
767.8559942139
 21
-448.2306721674
 31
0.0
  0
LINE
  5
1F1
330
1F
100
AcDbEntity
  8
0
  6
Continuous
 62
     7
370
    25
100
AcDbLine
 10
678.6560278303
 20
-602.3125181729
 30
0.0
 11
678.228374889
 21
-602.0936404206
 31
0.0
  0
LINE
  5
1F2
330
1F
100
AcDbEntity
  8
0
  6
Continuous
 62
     7
370
    25
100
AcDbLine
 10
664.4071858902
 20
-626.9949107507
 30
0.0
 11
664.5888699902
 21
-627.0945775495
 31
0.0
  0
LINE
  5
1F3
330
1F
100
AcDbEntity
  8
0
  6
Continuous
 62
     7
370
    25
100
AcDbLine
 10
720.0190358662
 20
-506.9495733813
 30
0.0
 11
719.591382925
 21
-506.7306956291
 31
0.0
  0
LINE
  5
1F4
330
1F
100
AcDbEntity
  8
0
  6
Continuous
 62
     7
370
    25
100
AcDbLine
 10
705.7701939261
 20
-531.6319659592
 30
0.0
 11
705.9518780261
 21
-531.731632758
 31
0.0
  0
LWPOLYLINE
  5
1F5
330
1F
100
AcDbEntity
  8
0
  6
Continuous
 62
     1
370
    25
100
AcDbPolyline
 90
       63
 70
   128
 43
0.0
 10
1058.5374356898
 20
-475.5618264277
 10
1058.4132458223
 20
-483.9864259765
 10
1058.0408226065
 20
-492.5444817533
 10
1057.4206050293
 20
-501.225906108
 10
1056.5533241608
 20
-510.0204659721
 10
1055.4400022921
 20
-518.917794921
 10
1054.0819517309
 20
-527.9074053926
 10
1052.4807732541
 20
-536.9787010497
 10
1050.6383542214
 20
-546.1209892705
 10
1048.5568663499
 20
-555.3234937516
 10
1046.2387631552
 20
-564.5753672111
 10
1043.6867770584
 20
-573.8657041743
 10
1040.903916166
 20
-583.1835538281
 10
1037.8934607238
 20
-592.5179329297
 10
1034.6589592505
 20
-601.8578387523
 10
1031.2042243549
 20
-611.1922620546
 10
1027.5333282418
 20
-620.5102000576
 10
1023.6505979123
 20
-629.8006694144
 10
1019.5606100628
 20
-639.0527191559
 10
1015.2681856909
 20
-648.2554435996
 10
1010.7783844124
 20
-657.3979952042
 10
1006.0964984977
 20
-666.4695973561
 10
1001.2280466331
 20
-675.459557072
 10
996.1787674163
 20
-684.357277603
 10
990.9546125918
 20
-693.1522709257
 10
985.5617400355
 20
-701.8341701042
 10
980.0065064961
 20
-710.3927415106
 10
974.2954601025
 20
-718.8178968869
 10
968.4353326451
 20
-727.0997052371
 10
962.4330316407
 20
-735.2284045327
 10
956.2956321906
 20
-743.1944132197
 10
950.0303686409
 20
-750.9883415127
 10
943.6446260553
 20
-758.6010024629
 10
937.1459315096
 20
-766.0234227868
 10
930.54194522
 20
-773.2468534439
 10
923.8404515131
 20
-780.2627799487
 10
917.0493496508
 20
-787.0629324077
 10
910.1766445187
 20
-793.6392952668
 10
903.230437191
 20
-799.98411676
 10
896.2189153812
 20
-806.0899180463
 10
889.1503437909
 20
-811.9495020252
 10
882.0330543681
 20
-817.5559618205
 10
874.8754364861
 20
-822.9026889214
 10
867.6859270548
 20
-827.9833809723
 10
860.4730005754
 20
-832.7920492012
 10
853.2451591515
 20
-837.3230254794
 10
846.0109224677
 20
-841.5709690024
 10
838.7788177467
 20
-845.5308725854
 10
831.5573696981
 20
-849.1980685653
 10
824.3550904704
 20
-852.5682343024
 10
817.1804696169
 20
-855.6373972764
 10
810.0419640894
 20
-858.4019397682
 10
802.9479882692
 20
-860.8586031243
 10
795.9069040492
 20
-863.0044915982
 10
788.9270109771
 20
-864.8370757637
 10
782.016536473
 20
-866.354195496
 10
775.1836261308
 20
-867.5540625183
 10
768.4363341172
 20
-868.4352625094
 10
761.782613678
 20
-868.9967567713
 10
755.230307763
 20
-869.237883453
 10
748.7871397818
 20
-869.1583583308
 10
742.4607044994
 20
-868.7582751434
 10
741.4139647247
 20
-868.6600432415
  0
LWPOLYLINE
  5
1F6
330
1F
100
AcDbEntity
  8
0
  6
Continuous
 62
     1
370
    25
100
AcDbPolyline
 90
       17
 70
   128
 43
0.0
 10
1029.9779733416
 20
-369.7293363795
 10
1031.2042243549
 20
-371.4896448719
 10
1034.6589592505
 20
-376.8353161666
 10
1037.8934607238
 20
-382.4407460787
 10
1040.903916166
 20
-388.2993273111
 10
1043.6867770584
 20
-394.4041541697
 10
1046.2387631552
 20
-400.7480307027
 10
1048.5568663499
 20
-407.3234791829
 10
1050.6383542214
 20
-414.1227489219
 10
1052.4807732541
 20
-421.1378254064
 10
1054.0819517309
 20
-428.3604397446
 10
1055.4400022921
 20
-435.7820784134
 10
1056.5533241608
 20
-443.3939932936
 10
1057.4206050293
 20
-451.187211981
 10
1058.0408226065
 20
-459.1525483634
 10
1058.4132458223
 20
-467.2806134478
 10
1058.5374356898
 20
-475.5618264277
  0
LWPOLYLINE
  5
1F7
330
1F
100
AcDbEntity
  8
0
  6
Continuous
 62
     1
370
    25
100
AcDbPolyline
 90
       17
 70
   128
 43
0.0
 10
1088.2359204996
 20
-492.706396776
 10
1088.1117306322
 20
-484.4251837961
 10
1087.7393074164
 20
-476.2971187117
 10
1087.1190898392
 20
-468.3317823293
 10
1086.2518089706
 20
-460.5385636418
 10
1085.1384871019
 20
-452.9266487617
 10
1083.7804365407
 20
-445.5050100929
 10
1082.179258064
 20
-438.2823957547
 10
1080.3368390312
 20
-431.2673192702
 10
1078.2553511598
 20
-424.4680495311
 10
1075.937247965
 20
-417.892601051
 10
1073.3852618683
 20
-411.548724518
 10
1070.6024009759
 20
-405.4438976594
 10
1067.5919455337
 20
-399.5853164269
 10
1064.3574440603
 20
-393.9798865149
 10
1060.9027091647
 20
-388.6342152201
 10
1060.0781991719
 20
-387.4432748259
  0
LWPOLYLINE
  5
1F8
330
1F
100
AcDbEntity
  8
0
  6
Continuous
 62
     1
370
    25
100
AcDbPolyline
 90
       62
 70
   128
 43
0.0
 10
773.1931932043
 20
-885.9908052907
 10
778.4856245916
 20
-886.302928679
 10
784.9287925729
 20
-886.3824538013
 10
791.4810984878
 20
-886.1413271196
 10
798.1348189271
 20
-885.5798328577
 10
804.8821109406
 20
-884.6986328665
 10
811.7150212828
 20
-883.4987658443
 10
818.625495787
 20
-881.981646112
 10
825.605388859
 20
-880.1490619465
 10
832.646473079
 20
-878.0031734725
 10
839.7404488992
 20
-875.5465101164
 10
846.8789544267
 20
-872.7819676247
 10
854.0535752802
 20
-869.7128046507
 10
861.255854508
 20
-866.3426389135
 10
868.4773025565
 20
-862.6754429337
 10
875.7094072776
 20
-858.7155393507
 10
882.9436439614
 20
-854.4675958277
 10
890.1714853852
 20
-849.9366195494
 10
897.3844118647
 20
-845.1279513205
 10
904.573921296
 20
-840.0472592697
 10
911.7315391779
 20
-834.7005321688
 10
918.8488286007
 20
-829.0940723735
 10
925.917400191
 20
-823.2344883945
 10
932.9289220009
 20
-817.1286871083
 10
939.8751293286
 20
-810.7838656151
 10
946.7478344606
 20
-804.207502756
 10
953.5389363229
 20
-797.407350297
 10
960.2404300298
 20
-790.3914237922
 10
966.8444163194
 20
-783.1679931351
 10
973.3431108651
 20
-775.7455728111
 10
979.7288534507
 20
-768.132911861
 10
985.9941170004
 20
-760.338983568
 10
992.1315164505
 20
-752.3729748809
 10
998.1338174549
 20
-744.2442755853
 10
1003.9939449124
 20
-735.9624672351
 10
1009.7049913059
 20
-727.5373118588
 10
1015.2602248453
 20
-718.9787404525
 10
1020.6530974016
 20
-710.2968412739
 10
1025.8772522262
 20
-701.5018479513
 10
1030.926531443
 20
-692.6041274202
 10
1035.7949833075
 20
-683.6141677044
 10
1040.4768692223
 20
-674.5425655525
 10
1044.9666705007
 20
-665.4000139479
 10
1049.2590948726
 20
-656.1972895042
 10
1053.3490827221
 20
-646.9452397627
 10
1057.2318130517
 20
-637.6547704059
 10
1060.9027091647
 20
-628.3368324028
 10
1064.3574440603
 20
-619.0024091006
 10
1067.5919455337
 20
-609.662503278
 10
1070.6024009759
 20
-600.3281241764
 10
1073.3852618683
 20
-591.0102745225
 10
1075.937247965
 20
-581.7199375594
 10
1078.2553511598
 20
-572.4680640999
 10
1080.3368390312
 20
-563.2655596188
 10
1082.179258064
 20
-554.123271398
 10
1083.7804365407
 20
-545.0519757409
 10
1085.1384871019
 20
-536.0623652693
 10
1086.2518089706
 20
-527.1650363204
 10
1087.1190898392
 20
-518.3704764562
 10
1087.7393074164
 20
-509.6890521016
 10
1088.1117306322
 20
-501.1309963248
 10
1088.2359204996
 20
-492.706396776
  0
LWPOLYLINE
  5
1F9
330
1F
100
AcDbEntity
  8
0
  6
Continuous
 62
     1
370
    25
100
AcDbPolyline
 90
       68
 70
   128
 43
0.0
 10
923.4794781901
 20
-401.2575743328
 10
922.9423554497
 20
-401.2134418254
 10
917.5243512159
 20
-400.951018838
 10
911.9918222834
 20
-401.0110433127
 10
906.3538585827
 20
-401.3934166296
 10
900.6197232733
 20
-402.0975105503
 10
894.7988375244
 20
-403.1221682503
 10
888.9007650362
 20
-404.4657062196
 10
882.9351963261
 20
-406.125917029
 10
876.911932808
 20
-408.1000729564
 10
870.8408706879
 20
-410.3849304689
 10
864.731984705
 20
-412.9767355515
 10
858.5953117429
 20
-415.8712298753
 10
852.4409343392
 20
-419.0636577937
 10
846.2789641198
 20
-422.548774156
 10
840.1195251855
 20
-426.3208529253
 10
833.9727374784
 20
-430.3736965859
 10
827.8487001546
 20
-434.7006463264
 10
821.7574749913
 20
-439.2945929798
 10
815.7090698553
 20
-444.1479887037
 10
809.7134222606
 20
-449.2528593817
 10
803.7803830403
 20
-454.6008177247
 10
797.9197001623
 20
-460.1830770512
 10
792.1410027132
 20
-465.9904657237
 10
786.4537850777
 20
-472.013442218
 10
780.8673913395
 20
-478.2421107994
 10
775.3909999288
 20
-484.6662377819
 10
770.0336085423
 20
-491.2752683416
 10
764.8040193599
 20
-498.0583438587
 10
759.7108245831
 20
-505.004319758
 10
754.7623923174
 20
-512.1017838193
 10
749.966852824
 20
-519.3390749277
 10
745.3320851618
 20
-526.704302233
 10
740.8657042418
 20
-534.1853646861
 10
736.5750483162
 20
-541.769970921
 10
732.4671669213
 20
-549.4456594495
 10
728.5488092957
 20
-557.1998191357
 10
724.8264132904
 20
-565.0197099153
 10
721.3060947924
 20
-572.8924837285
 10
717.9936376757
 20
-580.8052056286
 10
714.8944842988
 20
-588.7448750342
 10
712.0137265623
 20
-596.6984470893
 10
709.3560975438
 20
-604.652854096
 10
706.9259637208
 20
-612.5950269844
 10
704.7273177966
 20
-620.5119167854
 10
702.7637721409
 20
-628.3905160697
 10
701.0385528539
 20
-636.2178803194
 10
699.5544944664
 20
-643.9811491957
 10
698.3140352825
 20
-651.6675676681
 10
697.3192133734
 20
-659.2645069713
 10
696.5716632287
 20
-666.7594853539
 10
696.0726130715
 20
-674.1401885862
 10
695.8228828399
 20
-681.3944901921
 10
695.8228828399
 20
-688.5104713731
 10
696.0726130715
 20
-695.4764405908
 10
696.5716632287
 20
-702.2809527762
 10
697.3192133734
 20
-708.9128281335
 10
698.3140352825
 20
-715.3611705089
 10
699.5544944665
 20
-721.6153852929
 10
701.0385528539
 20
-727.665196827
 10
702.7637721409
 20
-733.5006652867
 10
704.7273177966
 20
-739.1122030126
 10
706.9259637208
 20
-744.4905902631
 10
709.3560975438
 20
-749.6269903619
 10
712.0137265623
 20
-754.5129642173
 10
714.8944842988
 20
-759.140484187
 10
717.9936376757
 20
-763.5019472678
 10
718.4066370104
 20
-764.0416696925
  0
LWPOLYLINE
  5
1FA
330
1F
100
AcDbEntity
  8
0
  6
Continuous
 62
     1
370
    25
100
AcDbPolyline
 90
       67
 70
   128
 43
0.0
 10
747.270007971
 20
-780.0853773606
 10
744.5929691086
 20
-776.2850545353
 10
741.7122113722
 20
-771.6575345656
 10
739.0545823537
 20
-766.7715607102
 10
736.6244485306
 20
-761.6351606114
 10
734.4258026065
 20
-756.2567733609
 10
732.4622569507
 20
-750.6452356349
 10
730.7370376637
 20
-744.8097671752
 10
729.2529792763
 20
-738.7599556412
 10
728.0125200924
 20
-732.5057408572
 10
727.0176981832
 20
-726.0573984818
 10
726.2701480386
 20
-719.4255231245
 10
725.7710978814
 20
-712.6210109391
 10
725.5213676497
 20
-705.6550417214
 10
725.5213676497
 20
-698.5390605404
 10
725.7710978814
 20
-691.2847589345
 10
726.2701480386
 20
-683.9040557022
 10
727.0176981832
 20
-676.4090773196
 10
728.0125200924
 20
-668.8121380164
 10
729.2529792763
 20
-661.125719544
 10
730.7370376637
 20
-653.3624506677
 10
732.4622569507
 20
-645.535086418
 10
734.4258026065
 20
-637.6564871337
 10
736.6244485306
 20
-629.7395973327
 10
739.0545823537
 20
-621.7974244443
 10
741.7122113722
 20
-613.8430174376
 10
744.5929691086
 20
-605.8894453825
 10
747.6921224856
 20
-597.9497759769
 10
751.0045796022
 20
-590.0370540768
 10
754.5248981002
 20
-582.1642802636
 10
758.2472941055
 20
-574.3443894839
 10
762.1656517312
 20
-566.5902297978
 10
766.273533126
 20
-558.9145412693
 10
770.5641890516
 20
-551.3299350344
 10
775.0305699716
 20
-543.8488725813
 10
779.6653376338
 20
-536.483645276
 10
784.4608771272
 20
-529.2463541676
 10
789.4093093929
 20
-522.1488901063
 10
794.5025041698
 20
-515.202914207
 10
799.7320933521
 20
-508.4198386899
 10
805.0894847386
 20
-501.8108081301
 10
810.5658761493
 20
-495.3866811477
 10
816.1522698876
 20
-489.1580125663
 10
821.8394875231
 20
-483.135036072
 10
827.6181849722
 20
-477.3276473995
 10
833.4788678502
 20
-471.745388073
 10
839.4119070705
 20
-466.39742973
 10
845.4075546652
 20
-461.292559052
 10
851.4559598011
 20
-456.4391633281
 10
857.5471849645
 20
-451.8452166747
 10
863.6712222883
 20
-447.5182669342
 10
869.8180099953
 20
-443.4654232736
 10
875.9774489296
 20
-439.6933445043
 10
882.139419149
 20
-436.208228142
 10
888.2937965527
 20
-433.0158002236
 10
894.4304695148
 20
-430.1213058998
 10
900.5393554977
 20
-427.5295008172
 10
906.6104176178
 20
-425.2446433047
 10
912.633681136
 20
-423.2704873773
 10
918.599249846
 20
-421.6102765679
 10
924.4973223343
 20
-420.2667385985
 10
930.3182080831
 20
-419.2420808986
 10
936.0523433925
 20
-418.5379869779
 10
941.6903070932
 20
-418.155613661
 10
947.2228360257
 20
-418.0955891862
 10
952.6408402595
 20
-418.3580121736
 10
953.8878457776
 20
-418.4656280466
  0
LWPOLYLINE
  5
1FB
330
1F
100
AcDbEntity
  8
0
  6
Continuous
 62
     1
370
    25
100
AcDbPolyline
 90
       22
 70
   128
 43
0.0
 10
989.441382925
 20
-662.5624264672
 10
988.6672987595
 20
-662.2899235354
 10
987.3191464899
 20
-662.114189164
 10
985.8583540704
 20
-662.25876259
 10
984.3208910585
 20
-662.7200839359
 10
982.7446148962
 20
-663.4867939391
 10
981.1683387338
 20
-664.5400136546
 10
979.630875722
 20
-665.8538093178
 10
978.1700833025
 20
-667.3958309192
 10
976.8219310329
 20
-669.1281087691
 10
975.6196148962
 20
-671.0079884379
 10
974.592739906
 20
-672.9891810492
 10
973.7665911327
 20
-675.0229030657
 10
973.1615111007
 20
-677.0590775017
 10
972.7923988887
 20
-679.047566985
 10
972.6683432643
 20
-680.9394083052
 10
972.7923988887
 20
-682.6880180501
 10
973.1615111007
 20
-684.2503396447
 10
973.7665911327
 20
-685.5879035462
 10
974.592739906
 20
-686.6677744922
 10
975.6196148962
 20
-687.4633624761
 10
975.6201939261
 20
-687.4636967974
  0
LWPOLYLINE
  5
1FC
330
1F
100
AcDbEntity
  8
0
  6
Continuous
 62
     1
370
    25
100
AcDbPolyline
 90
       22
 70
   128
 43
0.0
 10
1030.8043909609
 20
-567.1994816757
 10
1030.0303067955
 20
-566.9269787439
 10
1028.6821545258
 20
-566.7512443725
 10
1027.2213621063
 20
-566.8958177985
 10
1025.6838990945
 20
-567.3571391444
 10
1024.1076229321
 20
-568.1238491475
 10
1022.5313467698
 20
-569.1770688631
 10
1020.9938837579
 20
-570.4908645263
 10
1019.5330913384
 20
-572.0328861276
 10
1018.1849390688
 20
-573.7651639776
 10
1016.9826229321
 20
-575.6450436464
 10
1015.955747942
 20
-577.6262362577
 10
1015.1295991686
 20
-579.6599582741
 10
1014.5245191366
 20
-581.6961327102
 10
1014.1554069246
 20
-583.6846221935
 10
1014.0313513002
 20
-585.5764635136
 10
1014.1554069246
 20
-587.3250732586
 10
1014.5245191366
 20
-588.8873948532
 10
1015.1295991686
 20
-590.2249587546
 10
1015.955747942
 20
-591.3048297007
 10
1016.9826229321
 20
-592.1004176846
 10
1016.9832019621
 20
-592.1007520058
  0
LWPOLYLINE
  5
1FD
330
1F
100
AcDbEntity
  8
0
  6
Continuous
 62
     1
370
    25
100
AcDbPolyline
 90
       22
 70
   128
 43
0.0
 10
927.5372667372
 20
-746.0633870578
 10
926.7631825717
 20
-745.7908841259
 10
925.4150303021
 20
-745.6151497545
 10
923.9542378826
 20
-745.7597231806
 10
922.4167748707
 20
-746.2210445264
 10
920.8404987084
 20
-746.9877545296
 10
919.2642225461
 20
-748.0409742452
 10
917.7267595342
 20
-749.3547699084
 10
916.2659671147
 20
-750.8967915097
 10
914.9178148451
 20
-752.6290693597
 10
913.7154987084
 20
-754.5089490285
 10
912.6886237182
 20
-756.4901416398
 10
911.8624749449
 20
-758.5238636562
 10
911.2573949129
 20
-760.5600380923
 10
910.8882827009
 20
-762.5485275756
 10
910.7642270765
 20
-764.4403688957
 10
910.8882827009
 20
-766.1889786407
 10
911.2573949129
 20
-767.7513002352
 10
911.8624749449
 20
-769.0888641367
 10
912.6886237182
 20
-770.1687350827
 10
913.7154987084
 20
-770.9643230667
 10
913.7160777384
 20
-770.9646573879
  0
LWPOLYLINE
  5
1FE
330
1F
100
AcDbEntity
  8
0
  6
Continuous
 62
     1
370
    25
100
AcDbPolyline
 90
       22
 70
   128
 43
0.0
 10
1045.3291478282
 20
-474.4926965605
 10
1044.5550636627
 20
-474.2201936286
 10
1043.2069113931
 20
-474.0444592572
 10
1041.7461189736
 20
-474.1890326833
 10
1040.2086559617
 20
-474.6503540291
 10
1038.6323797994
 20
-475.4170640323
 10
1037.056103637
 20
-476.4702837479
 10
1035.5186406252
 20
-477.7840794111
 10
1034.0578482057
 20
-479.3261010124
 10
1032.709695936
 20
-481.0583788623
 10
1031.5073797994
 20
-482.9382585312
 10
1030.4805048092
 20
-484.9194511425
 10
1029.6543560359
 20
-486.9531731589
 10
1029.0492760039
 20
-488.9893475949
 10
1028.6801637919
 20
-490.9778370783
 10
1028.5561081675
 20
-492.8696783984
 10
1028.6801637919
 20
-494.6182881434
 10
1029.0492760039
 20
-496.1806097379
 10
1029.6543560359
 20
-497.5181736394
 10
1030.4805048092
 20
-498.5980445854
 10
1031.5073797994
 20
-499.3936325694
 10
1031.5079588293
 20
-499.3939668906
  0
LWPOLYLINE
  5
1FF
330
1F
100
AcDbEntity
  8
0
  6
Continuous
 62
     1
370
    25
100
AcDbPolyline
 90
       22
 70
   128
 43
0.0
 10
854.516382925
 20
-804.9900991355
 10
853.7422987595
 20
-804.7175962037
 10
852.3941464899
 20
-804.5418618323
 10
850.9333540704
 20
-804.6864352583
 10
849.3958910585
 20
-805.1477566042
 10
847.8196148962
 20
-805.9144666074
 10
846.2433387338
 20
-806.9676863229
 10
844.705875722
 20
-808.2814819861
 10
843.2450833025
 20
-809.8235035875
 10
841.8969310328
 20
-811.5557814374
 10
840.6946148962
 20
-813.4356611062
 10
839.667739906
 20
-815.4168537175
 10
838.8415911326
 20
-817.450575734
 10
838.2365111007
 20
-819.48675017
 10
837.8673988887
 20
-821.4752396533
 10
837.7433432643
 20
-823.3670809735
 10
837.8673988887
 20
-825.1156907184
 10
838.2365111007
 20
-826.678012313
 10
838.8415911326
 20
-828.0155762145
 10
839.667739906
 20
-829.0954471605
 10
840.6946148962
 20
-829.8910351444
 10
840.6951939261
 20
-829.8913694657
  0
LWPOLYLINE
  5
200
330
1F
100
AcDbEntity
  8
0
  6
Continuous
 62
     1
370
    25
100
AcDbPolyline
 90
       22
 70
   128
 43
0.0
 10
1030.8043909609
 20
-398.5558387662
 10
1030.0303067955
 20
-398.2833358344
 10
1028.6821545258
 20
-398.107601463
 10
1027.2213621063
 20
-398.252174889
 10
1025.6838990945
 20
-398.7134962349
 10
1024.1076229321
 20
-399.480206238
 10
1022.5313467698
 20
-400.5334259536
 10
1020.9938837579
 20
-401.8472216168
 10
1019.5330913385
 20
-403.3892432181
 10
1018.1849390688
 20
-405.1215210681
 10
1016.9826229321
 20
-407.0014007369
 10
1015.955747942
 20
-408.9825933482
 10
1015.1295991686
 20
-411.0163153646
 10
1014.5245191366
 20
-413.0524898007
 10
1014.1554069246
 20
-415.040979284
 10
1014.0313513002
 20
-416.9328206041
 10
1014.1554069246
 20
-418.6814303491
 10
1014.5245191366
 20
-420.2437519437
 10
1015.1295991686
 20
-421.5813158452
 10
1015.955747942
 20
-422.6611867912
 10
1016.9826229321
 20
-423.4567747751
 10
1016.9832019621
 20
-423.4571090963
  0
LWPOLYLINE
  5
201
330
1F
100
AcDbEntity
  8
0
  6
Continuous
 62
     1
370
    25
100
AcDbPolyline
 90
       22
 70
   128
 43
0.0
 10
781.4954991127
 20
-830.3715049586
 10
780.7214149473
 20
-830.0990020268
 10
779.3732626776
 20
-829.9232676554
 10
777.9124702581
 20
-830.0678410814
 10
776.3750072463
 20
-830.5291624273
 10
774.7987310839
 20
-831.2958724304
 10
773.2224549216
 20
-832.349092146
 10
771.6849919097
 20
-833.6628878092
 10
770.2241994903
 20
-835.2049094105
 10
768.8760472206
 20
-836.9371872605
 10
767.6737310839
 20
-838.8170669293
 10
766.6468560938
 20
-840.7982595406
 10
765.8207073204
 20
-842.8319815571
 10
765.2156272885
 20
-844.8681559931
 10
764.8465150764
 20
-846.8566454764
 10
764.722459452
 20
-848.7484867966
 10
764.8465150764
 20
-850.4970965415
 10
765.2156272885
 20
-852.0594181361
 10
765.8207073204
 20
-853.3969820376
 10
766.6468560938
 20
-854.4768529836
 10
767.6737310839
 20
-855.2724409675
 10
767.6743101139
 20
-855.2727752887
  0
LWPOLYLINE
  5
202
330
1F
100
AcDbEntity
  8
0
  6
Continuous
 62
     1
370
    25
100
AcDbPolyline
 90
       22
 70
   128
 43
0.0
 10
989.441382925
 20
-350.9496065228
 10
988.6672987595
 20
-350.6771035909
 10
987.3191464899
 20
-350.5013692195
 10
985.8583540704
 20
-350.6459426456
 10
984.3208910585
 20
-351.1072639914
 10
982.7446148962
 20
-351.8739739946
 10
981.1683387339
 20
-352.9271937102
 10
979.630875722
 20
-354.2409893734
 10
978.1700833025
 20
-355.7830109747
 10
976.8219310329
 20
-357.5152888247
 10
975.6196148962
 20
-359.3951684935
 10
974.592739906
 20
-361.3763611048
 10
973.7665911327
 20
-363.4100831212
 10
973.1615111007
 20
-365.4462575573
 10
972.7923988887
 20
-367.4347470406
 10
972.6683432643
 20
-369.3265883607
 10
972.7923988887
 20
-371.0751981057
 10
973.1615111007
 20
-372.6375197002
 10
973.7665911327
 20
-373.9750836017
 10
974.592739906
 20
-375.0549545477
 10
975.6196148962
 20
-375.8505425317
 10
975.6201939262
 20
-375.8508768529
  0
LWPOLYLINE
  5
203
330
1F
100
AcDbEntity
  8
0
  6
Continuous
 62
     1
370
    25
100
AcDbPolyline
 90
       22
 70
   128
 43
0.0
 10
719.591382925
 20
-818.3435155735
 10
718.8172987595
 20
-818.0710126417
 10
717.4691464898
 20
-817.8952782703
 10
716.0083540704
 20
-818.0398516963
 10
714.4708910585
 20
-818.5011730422
 10
712.8946148962
 20
-819.2678830453
 10
711.3183387338
 20
-820.3211027609
 10
709.780875722
 20
-821.6348984241
 10
708.3200833025
 20
-823.1769200254
 10
706.9719310328
 20
-824.9091978754
 10
705.7696148962
 20
-826.7890775442
 10
704.742739906
 20
-828.7702701555
 10
703.9165911326
 20
-830.803992172
 10
703.3115111007
 20
-832.840166608
 10
702.9423988887
 20
-834.8286560913
 10
702.8183432643
 20
-836.7204974114
 10
702.9423988887
 20
-838.4691071564
 10
703.3115111007
 20
-840.031428751
 10
703.9165911326
 20
-841.3689926525
 10
704.742739906
 20
-842.4488635985
 10
705.7696148962
 20
-843.2444515824
 10
705.7701939261
 20
-843.2447859036
  0
LWPOLYLINE
  5
204
330
1F
100
AcDbEntity
  8
0
  6
Continuous
 62
     1
370
    25
100
AcDbPolyline
 90
       22
 70
   128
 43
0.0
 10
927.5372667372
 20
-338.9216171377
 10
926.7631825717
 20
-338.6491142058
 10
925.4150303021
 20
-338.4733798344
 10
923.9542378826
 20
-338.6179532605
 10
922.4167748708
 20
-339.0792746063
 10
920.8404987084
 20
-339.8459846095
 10
919.2642225461
 20
-340.8992043251
 10
917.7267595342
 20
-342.2129999883
 10
916.2659671147
 20
-343.7550215896
 10
914.9178148451
 20
-345.4872994395
 10
913.7154987084
 20
-347.3671791084
 10
912.6886237183
 20
-349.3483717197
 10
911.8624749449
 20
-351.3820937361
 10
911.2573949129
 20
-353.4182681721
 10
910.8882827009
 20
-355.4067576555
 10
910.7642270765
 20
-357.2985989756
 10
910.8882827009
 20
-359.0472087206
 10
911.2573949129
 20
-360.6095303151
 10
911.8624749449
 20
-361.9470942166
 10
912.6886237183
 20
-363.0269651626
 10
913.7154987084
 20
-363.8225531466
 10
913.7160777384
 20
-363.8228874678
  0
LWPOLYLINE
  5
205
330
1F
100
AcDbEntity
  8
0
  6
Continuous
 62
     1
370
    25
100
AcDbPolyline
 90
       22
 70
   128
 43
0.0
 10
678.228374889
 20
-770.7372833301
 10
677.4542907236
 20
-770.4647803982
 10
676.1061384539
 20
-770.2890460268
 10
674.6453460344
 20
-770.4336194529
 10
673.1078830226
 20
-770.8949407988
 10
671.5316068602
 20
-771.6616508019
 10
669.9553306979
 20
-772.7148705175
 10
668.417867686
 20
-774.0286661807
 10
666.9570752665
 20
-775.570687782
 10
665.6089229969
 20
-777.302965632
 10
664.4066068602
 20
-779.1828453008
 10
663.3797318701
 20
-781.1640379121
 10
662.5535830967
 20
-783.1977599285
 10
661.9485030647
 20
-785.2339343646
 10
661.5793908527
 20
-787.2224238479
 10
661.4553352283
 20
-789.114265168
 10
661.5793908527
 20
-790.862874913
 10
661.9485030647
 20
-792.4251965075
 10
662.5535830967
 20
-793.762760409
 10
663.3797318701
 20
-794.842631355
 10
664.4066068602
 20
-795.638219339
 10
664.4071858902
 20
-795.6385536602
  0
LWPOLYLINE
  5
206
330
1F
100
AcDbEntity
  8
0
  6
Continuous
 62
     1
370
    25
100
AcDbPolyline
 90
       22
 70
   128
 43
0.0
 10
854.516382925
 20
-364.3030229608
 10
853.7422987595
 20
-364.0305200289
 10
852.3941464899
 20
-363.8547856575
 10
850.9333540704
 20
-363.9993590836
 10
849.3958910585
 20
-364.4606804294
 10
847.8196148962
 20
-365.2273904326
 10
846.2433387338
 20
-366.2806101482
 10
844.705875722
 20
-367.5944058114
 10
843.2450833025
 20
-369.1364274127
 10
841.8969310329
 20
-370.8687052626
 10
840.6946148962
 20
-372.7485849315
 10
839.667739906
 20
-374.7297775428
 10
838.8415911327
 20
-376.7634995592
 10
838.2365111007
 20
-378.7996739952
 10
837.8673988887
 20
-380.7881634786
 10
837.7433432643
 20
-382.6800047987
 10
837.8673988887
 20
-384.4286145437
 10
838.2365111007
 20
-385.9909361382
 10
838.8415911327
 20
-387.3285000397
 10
839.667739906
 20
-388.4083709857
 10
840.6946148962
 20
-389.2039589697
 10
840.6951939262
 20
-389.2042932909
  0
LWPOLYLINE
  5
207
330
1F
100
AcDbEntity
  8
0
  6
Continuous
 62
     1
370
    25
100
AcDbPolyline
 90
       22
 70
   128
 43
0.0
 10
663.7036180218
 20
-694.8004255358
 10
662.9295338563
 20
-694.527922604
 10
661.5813815867
 20
-694.3521882326
 10
660.1205891672
 20
-694.4967616586
 10
658.5831261553
 20
-694.9580830045
 10
657.006849993
 20
-695.7247930076
 10
655.4305738306
 20
-696.7780127232
 10
653.8931108188
 20
-698.0918083864
 10
652.4323183993
 20
-699.6338299877
 10
651.0841661297
 20
-701.3661078377
 10
649.881849993
 20
-703.2459875065
 10
648.8549750028
 20
-705.2271801178
 10
648.0288262295
 20
-707.2609021343
 10
647.4237461975
 20
-709.2970765703
 10
647.0546339855
 20
-711.2855660536
 10
646.9305783611
 20
-713.1774073738
 10
647.0546339855
 20
-714.9260171187
 10
647.4237461975
 20
-716.4883387133
 10
648.0288262295
 20
-717.8259026148
 10
648.8549750028
 20
-718.9057735608
 10
649.881849993
 20
-719.7013615447
 10
649.8824290229
 20
-719.7016958659
  0
LWPOLYLINE
  5
208
330
1F
100
AcDbEntity
  8
0
  6
Continuous
 62
     1
370
    25
100
AcDbPolyline
 90
       22
 70
   128
 43
0.0
 10
781.4954991127
 20
-423.2297350385
 10
780.7214149473
 20
-422.9572321067
 10
779.3732626776
 20
-422.7814977353
 10
777.9124702582
 20
-422.9260711613
 10
776.3750072463
 20
-423.3873925072
 10
774.798731084
 20
-424.1541025103
 10
773.2224549216
 20
-425.2073222259
 10
771.6849919098
 20
-426.5211178891
 10
770.2241994903
 20
-428.0631394904
 10
768.8760472206
 20
-429.7954173404
 10
767.673731084
 20
-431.6752970092
 10
766.6468560938
 20
-433.6564896205
 10
765.8207073204
 20
-435.690211637
 10
765.2156272885
 20
-437.726386073
 10
764.8465150764
 20
-439.7148755563
 10
764.722459452
 20
-441.6067168764
 10
764.8465150764
 20
-443.3553266214
 10
765.2156272885
 20
-444.917648216
 10
765.8207073204
 20
-446.2552121175
 10
766.6468560938
 20
-447.3350830635
 10
767.673731084
 20
-448.1306710474
 10
767.6743101139
 20
-448.1310053686
  0
LWPOLYLINE
  5
209
330
1F
100
AcDbEntity
  8
0
  6
Continuous
 62
     1
370
    25
100
AcDbPolyline
 90
       22
 70
   128
 43
0.0
 10
678.228374889
 20
-602.0936404206
 10
677.4542907236
 20
-601.8211374887
 10
676.1061384539
 20
-601.6454031173
 10
674.6453460344
 20
-601.7899765434
 10
673.1078830226
 20
-602.2512978893
 10
671.5316068602
 20
-603.0180078924
 10
669.9553306979
 20
-604.071227608
 10
668.417867686
 20
-605.3850232712
 10
666.9570752665
 20
-606.9270448725
 10
665.6089229969
 20
-608.6593227225
 10
664.4066068602
 20
-610.5392023913
 10
663.3797318701
 20
-612.5203950026
 10
662.5535830967
 20
-614.554117019
 10
661.9485030647
 20
-616.5902914551
 10
661.5793908527
 20
-618.5787809384
 10
661.4553352283
 20
-620.4706222585
 10
661.5793908527
 20
-622.2192320035
 10
661.9485030647
 20
-623.7815535981
 10
662.5535830967
 20
-625.1191174995
 10
663.3797318701
 20
-626.1989884455
 10
664.4066068602
 20
-626.9945764295
 10
664.4071858902
 20
-626.9949107507
  0
LWPOLYLINE
  5
20A
330
1F
100
AcDbEntity
  8
0
  6
Continuous
 62
     1
370
    25
100
AcDbPolyline
 90
       22
 70
   128
 43
0.0
 10
719.591382925
 20
-506.7306956291
 10
718.8172987595
 20
-506.4581926972
 10
717.4691464899
 20
-506.2824583258
 10
716.0083540704
 20
-506.4270317519
 10
714.4708910585
 20
-506.8883530977
 10
712.8946148962
 20
-507.6550631009
 10
711.3183387338
 20
-508.7082828165
 10
709.780875722
 20
-510.0220784797
 10
708.3200833025
 20
-511.564100081
 10
706.9719310328
 20
-513.2963779309
 10
705.7696148962
 20
-515.1762575998
 10
704.742739906
 20
-517.157450211
 10
703.9165911327
 20
-519.1911722275
 10
703.3115111007
 20
-521.2273466635
 10
702.9423988887
 20
-523.2158361469
 10
702.8183432643
 20
-525.107677467
 10
702.9423988887
 20
-526.856287212
 10
703.3115111007
 20
-528.4186088065
 10
703.9165911327
 20
-529.756172708
 10
704.742739906
 20
-530.836043654
 10
705.7696148962
 20
-531.631631638
 10
705.7701939261
 20
-531.6319659592
  0
ENDSEC
  0
SECTION
  2
OBJECTS
  0
DICTIONARY
  5
C
330
0
100
AcDbDictionary
281
     1
  3
ACAD_GROUP
350
D
  3
ACAD_LAYOUT
350
1A
  3
ACAD_MLINESTYLE
350
17
  3
ACAD_PLOTSETTINGS
350
19
  3
ACAD_PLOTSTYLENAME
350
E
  3
ACAD_SCALELIST
350
47
  3
DWGPROPS
350
20B
  0
DICTIONARY
  5
D
102
{ACAD_REACTORS
330
C
102
}
330
C
100
AcDbDictionary
281
     1
  0
DICTIONARY
  5
1A
102
{ACAD_REACTORS
330
C
102
}
330
C
100
AcDbDictionary
281
     1
  3
Layout1
350
1E
  3
Layout2
350
26
  3
Model
350
22
  0
DICTIONARY
  5
17
102
{ACAD_REACTORS
330
C
102
}
330
C
100
AcDbDictionary
281
     1
  3
Standard
350
18
  0
DICTIONARY
  5
19
102
{ACAD_REACTORS
330
C
102
}
330
C
100
AcDbDictionary
281
     1
  0
ACDBDICTIONARYWDFLT
  5
E
102
{ACAD_REACTORS
330
C
102
}
330
C
100
AcDbDictionary
281
     1
  3
Normal
350
F
100
AcDbDictionaryWithDefault
340
F
  0
DICTIONARY
  5
47
102
{ACAD_REACTORS
330
C
102
}
330
C
100
AcDbDictionary
281
     1
  3
A0
350
48
  3
A1
350
49
  3
A2
350
4A
  3
A3
350
4B
  3
A4
350
4C
  3
A5
350
4D
  3
A6
350
4E
  3
A7
350
4F
  3
A8
350
50
  3
A9
350
51
  3
B0
350
52
  3
B1
350
53
  3
B2
350
54
  3
B3
350
55
  3
B4
350
56
  3
B5
350
57
  3
B6
350
58
  3
B7
350
59
  3
B8
350
5A
  3
B9
350
5B
  3
C0
350
5C
  3
C1
350
5D
  3
C2
350
5E
  3
C3
350
5F
  3
C4
350
60
  3
C5
350
61
  3
C6
350
62
  3
C7
350
63
  3
C8
350
64
  3
C9
350
65
  3
D0
350
66
  3
D1
350
67
  3
D2
350
68
  0
XRECORD
  5
20B
102
{ACAD_REACTORS
330
C
102
}
330
C
100
AcDbXrecord
280
     1
  1
DWGPROPS COOKIE
  2

  3

  4

  6

  7

  8
b.kav
  9

300
=
301
=
302
=
303
=
304
=
305
=
306
=
307
=
308
=
309
=
 40
0.0
 41
2459741.463760938
 42
2459741.463763623
  1

 90
        0
  0
LAYOUT
  5
1E
102
{ACAD_REACTORS
330
1A
102
}
330
1A
100
AcDbPlotSettings
  1

  2
none_device
  4

  6

 40
0.0
 41
0.0
 42
0.0
 43
0.0
 44
0.0
 45
0.0
 46
0.0
 47
0.0
 48
0.0
 49
0.0
140
0.0
141
0.0
142
1.0
143
1.0
 70
   688
 72
     1
 73
     0
 74
     5
  7

 75
    16
147
1.0
148
0.0
149
0.0
100
AcDbLayout
  1
Layout1
 70
     1
 71
     1
 10
0.0
 20
0.0
 11
420.0
 21
297.0
 12
0.0
 22
0.0
 32
0.0
 14
1.0000000000E+20
 24
1.0000000000E+20
 34
1.0000000000E+20
 15
-1.0000000000E+20
 25
-1.0000000000E+20
 35
-1.0000000000E+20
146
0.0
 13
0.0
 23
0.0
 33
0.0
 16
1.0
 26
0.0
 36
0.0
 17
0.0
 27
1.0
 37
0.0
 76
     0
330
1B
  0
LAYOUT
  5
26
102
{ACAD_REACTORS
330
1A
102
}
330
1A
100
AcDbPlotSettings
  1

  2
none_device
  4

  6

 40
0.0
 41
0.0
 42
0.0
 43
0.0
 44
0.0
 45
0.0
 46
0.0
 47
0.0
 48
0.0
 49
0.0
140
0.0
141
0.0
142
1.0
143
1.0
 70
   688
 72
     1
 73
     0
 74
     5
  7

 75
    16
147
1.0
148
0.0
149
0.0
100
AcDbLayout
  1
Layout2
 70
     1
 71
     2
 10
0.0
 20
0.0
 11
0.0
 21
0.0
 12
0.0
 22
0.0
 32
0.0
 14
0.0
 24
0.0
 34
0.0
 15
0.0
 25
0.0
 35
0.0
146
0.0
 13
0.0
 23
0.0
 33
0.0
 16
1.0
 26
0.0
 36
0.0
 17
0.0
 27
1.0
 37
0.0
 76
     0
330
23
  0
LAYOUT
  5
22
102
{ACAD_REACTORS
330
1A
102
}
330
1A
100
AcDbPlotSettings
  1

  2
none_device
  4
Letter_(8.50_x_11.00_Inches)
  6

 40
6.35
 41
6.35
 42
6.35000508
 43
6.35000508
 44
215.9
 45
279.4
 46
0.0
 47
0.0
 48
0.0
 49
0.0
140
0.0
141
0.0
142
1.0
143
1.0
 70
  1712
 72
     1
 73
     0
 74
     0
  7

 75
     0
147
1.0
148
0.0
149
0.0
100
AcDbLayout
  1
Model
 70
     1
 71
     0
 10
0.0
 20
0.0
 11
279.4
 21
215.9
 12
0.0
 22
0.0
 32
0.0
 14
0.0
 24
0.0
 34
0.0
 15
279.4
 25
215.9
 35
0.0
146
0.0
 13
0.0
 23
0.0
 33
0.0
 16
1.0
 26
0.0
 36
0.0
 17
0.0
 27
1.0
 37
0.0
 76
     0
330
1F
331
29
  0
MLINESTYLE
  5
18
102
{ACAD_REACTORS
330
17
102
}
330
17
100
AcDbMlineStyle
  2
Standard
 70
     0
  3

 62
   256
 51
90.0
 52
90.0
 71
     2
 49
0.5
 62
   256
  6
BYLAYER
 49
-0.5
 62
   256
  6
BYLAYER
  0
ACDBPLACEHOLDER
  5
F
102
{ACAD_REACTORS
330
E
102
}
330
E
  0
SCALE
  5
48
102
{ACAD_REACTORS
330
47
102
}
330
47
100
AcDbScale
 70
     0
300
1:1
140
1.0
141
1.0
290
     1
  0
SCALE
  5
49
102
{ACAD_REACTORS
330
47
102
}
330
47
100
AcDbScale
 70
     0
300
1:2
140
1.0
141
2.0
290
     0
  0
SCALE
  5
4A
102
{ACAD_REACTORS
330
47
102
}
330
47
100
AcDbScale
 70
     0
300
1:4
140
1.0
141
4.0
290
     0
  0
SCALE
  5
4B
102
{ACAD_REACTORS
330
47
102
}
330
47
100
AcDbScale
 70
     0
300
1:5
140
1.0
141
5.0
290
     0
  0
SCALE
  5
4C
102
{ACAD_REACTORS
330
47
102
}
330
47
100
AcDbScale
 70
     0
300
1:8
140
1.0
141
8.0
290
     0
  0
SCALE
  5
4D
102
{ACAD_REACTORS
330
47
102
}
330
47
100
AcDbScale
 70
     0
300
1:10
140
1.0
141
10.0
290
     0
  0
SCALE
  5
4E
102
{ACAD_REACTORS
330
47
102
}
330
47
100
AcDbScale
 70
     0
300
1:16
140
1.0
141
16.0
290
     0
  0
SCALE
  5
4F
102
{ACAD_REACTORS
330
47
102
}
330
47
100
AcDbScale
 70
     0
300
1:20
140
1.0
141
20.0
290
     0
  0
SCALE
  5
50
102
{ACAD_REACTORS
330
47
102
}
330
47
100
AcDbScale
 70
     0
300
1:30
140
1.0
141
30.0
290
     0
  0
SCALE
  5
51
102
{ACAD_REACTORS
330
47
102
}
330
47
100
AcDbScale
 70
     0
300
1:40
140
1.0
141
40.0
290
     0
  0
SCALE
  5
52
102
{ACAD_REACTORS
330
47
102
}
330
47
100
AcDbScale
 70
     0
300
1:50
140
1.0
141
50.0
290
     0
  0
SCALE
  5
53
102
{ACAD_REACTORS
330
47
102
}
330
47
100
AcDbScale
 70
     0
300
1:100
140
1.0
141
100.0
290
     0
  0
SCALE
  5
54
102
{ACAD_REACTORS
330
47
102
}
330
47
100
AcDbScale
 70
     0
300
2:1
140
2.0
141
1.0
290
     0
  0
SCALE
  5
55
102
{ACAD_REACTORS
330
47
102
}
330
47
100
AcDbScale
 70
     0
300
4:1
140
4.0
141
1.0
290
     0
  0
SCALE
  5
56
102
{ACAD_REACTORS
330
47
102
}
330
47
100
AcDbScale
 70
     0
300
8:1
140
8.0
141
1.0
290
     0
  0
SCALE
  5
57
102
{ACAD_REACTORS
330
47
102
}
330
47
100
AcDbScale
 70
     0
300
10:1
140
10.0
141
1.0
290
     0
  0
SCALE
  5
58
102
{ACAD_REACTORS
330
47
102
}
330
47
100
AcDbScale
 70
     0
300
100:1
140
100.0
141
1.0
290
     0
  0
SCALE
  5
59
102
{ACAD_REACTORS
330
47
102
}
330
47
100
AcDbScale
 70
     0
300
1/128" = 1'-0"
140
0.0078125
141
12.0
290
     0
  0
SCALE
  5
5A
102
{ACAD_REACTORS
330
47
102
}
330
47
100
AcDbScale
 70
     0
300
1/64" = 1'-0"
140
0.015625
141
12.0
290
     0
  0
SCALE
  5
5B
102
{ACAD_REACTORS
330
47
102
}
330
47
100
AcDbScale
 70
     0
300
1/32" = 1'-0"
140
0.03125
141
12.0
290
     0
  0
SCALE
  5
5C
102
{ACAD_REACTORS
330
47
102
}
330
47
100
AcDbScale
 70
     0
300
1/16" = 1'-0"
140
0.0625
141
12.0
290
     0
  0
SCALE
  5
5D
102
{ACAD_REACTORS
330
47
102
}
330
47
100
AcDbScale
 70
     0
300
3/32" = 1'-0"
140
0.09375
141
12.0
290
     0
  0
SCALE
  5
5E
102
{ACAD_REACTORS
330
47
102
}
330
47
100
AcDbScale
 70
     0
300
1/8" = 1'-0"
140
0.125
141
12.0
290
     0
  0
SCALE
  5
5F
102
{ACAD_REACTORS
330
47
102
}
330
47
100
AcDbScale
 70
     0
300
3/16" = 1'-0"
140
0.1875
141
12.0
290
     0
  0
SCALE
  5
60
102
{ACAD_REACTORS
330
47
102
}
330
47
100
AcDbScale
 70
     0
300
1/4" = 1'-0"
140
0.25
141
12.0
290
     0
  0
SCALE
  5
61
102
{ACAD_REACTORS
330
47
102
}
330
47
100
AcDbScale
 70
     0
300
3/8" = 1'-0"
140
0.375
141
12.0
290
     0
  0
SCALE
  5
62
102
{ACAD_REACTORS
330
47
102
}
330
47
100
AcDbScale
 70
     0
300
1/2" = 1'-0"
140
0.5
141
12.0
290
     0
  0
SCALE
  5
63
102
{ACAD_REACTORS
330
47
102
}
330
47
100
AcDbScale
 70
     0
300
3/4" = 1'-0"
140
0.75
141
12.0
290
     0
  0
SCALE
  5
64
102
{ACAD_REACTORS
330
47
102
}
330
47
100
AcDbScale
 70
     0
300
1" = 1'-0"
140
1.0
141
12.0
290
     0
  0
SCALE
  5
65
102
{ACAD_REACTORS
330
47
102
}
330
47
100
AcDbScale
 70
     0
300
1-1/2" = 1'-0"
140
1.5
141
12.0
290
     0
  0
SCALE
  5
66
102
{ACAD_REACTORS
330
47
102
}
330
47
100
AcDbScale
 70
     0
300
3" = 1'-0"
140
3.0
141
12.0
290
     0
  0
SCALE
  5
67
102
{ACAD_REACTORS
330
47
102
}
330
47
100
AcDbScale
 70
     0
300
6" = 1'-0"
140
6.0
141
12.0
290
     0
  0
SCALE
  5
68
102
{ACAD_REACTORS
330
47
102
}
330
47
100
AcDbScale
 70
     0
300
1'-0" = 1'-0"
140
12.0
141
12.0
290
     0
  0
ENDSEC
  0
EOF
